To celebrate the anniversary, I am giving you (finally...) : iPhone LickByNeck !!!!!!

Feels So Good (BASIC)

Chuck Mangione's tune fingerstyle chord melody guitar BASIC arrangement played in the key of F.
Feel so Good-Chuck Mangione-BASIC Arrangement played in the key of F.
ClassicalGuitarTablature http://classicalguitartablature.blogspot.com/
E|--------------------------------|-------------------- 3---- 1 0--|
B|--------------------------------| 1------ 1-- 1------------------|
G| 2-------------- 3--------------| 2------ 2-- 2------------------|
D| 3-------------- 2--------------| 3------ 3-- 3------------------|
A|--------------------------------|--------------------------------|
E| 3-------------- 2--------------| 1------------------ 1----------|
ClassicalGuitarTablature http://classicalguitartablature.blogspot.com/
E|--------------------------------|------------------------------ 0|
B| 6------ 6---- 6----------------|------------------------ 6 5 6 1|
G| 5------ 5---- 5---- 5----------| 3------ 3-- 3------------------|
D| 7------ 7---- 7---------- 8 7--| 5------ 5-- 5------------------|
A| 5------------------ 5----------|------------------------------ 3|
E|--------------------------------| 3------------------ 3----------|
ClassicalGuitarTablature http://classicalguitartablature.blogspot.com/
ClassicalGuitarTablature http://classicalguitartablature.blogspot.com/
E|--------------------------------|-------------------- 3---- 1 0--|
B|------ 1-------------- 1--------|------------------------------ 6|
G|------ 0-------- 2---- 2------ 2|-------- 2-- 2---- 2---------- 5|
D|-- 2-------- 2------ 2------ 2--| 2------ 2-- 2-- 2--------------|
A|---------------- 1--------------| 0---------------- 0---------- 5|
E|--------------------------------|--------------------------------|
ClassicalGuitarTablature http://classicalguitartablature.blogspot.com/
E|--------------------------------|------------------------ 5 6 5--|
B|------ 6---- 6-- 6--------------|-------- 3-- 3-- 3--------------|
G|------ 5---- 5-- 5-- 5----------|-------- 3---- 3 3--------------|
D|------ 7---- 7-- 7-------- 8 7--| 5------ 5-- 5-- 5---- 5--------|
A|-------------------- 5----------|--------------------------------|
E|--------------------------------| 3------------------ 3----------|
ClassicalGuitarTablature http://classicalguitartablature.blogspot.com/
E| 3-------------- 5--------------|-- 5----------------------------|
B| 3------ 3------ 6------ 8------| 8-- 6--------------------------|
G| 3---------- 3-- 6---------- 6--| 5------------------------------|
D|---- 2-------------- 5----------|------------------ 3------------|
A|---------------- 0--------------| 5---------- 7------ 5------ 6--|
E| 0------------------------------|------ 0------ 1----------------|
ClassicalGuitarTablature http://classicalguitartablature.blogspot.com/
E|--------------------------------|--------------------------------|
B|--------------------------------|--------------------------------|
G|---- 8--------------------------|---- 7--------------------------|
D|------------ 3---- 5------------|------------ 2------ 3----------|
A|-------------------- 6------ 5--|---------------------- 5---- 6--|
E|-------- 1------ 3--------------|-------- 0------ 1--------------|
ClassicalGuitarTablature http://classicalguitartablature.blogspot.com/
E|--------------------------------| 1------------------------ 3 1--|
B|-------------------------- 8-- 8| 1------ 1---- 1-- 1------------|
G|---- 8--------------------------| 2------ 2---- 2-- 2------------|
D|------------ 3---- 5------------|-------- 3---- 3-- 3---- 3------|
A|---------------------- 6--------|--------------------------------|
E|-------- 1------ 3--------------| 1------------------ 1----------|
ClassicalGuitarTablature http://classicalguitartablature.blogspot.com/
E|--------------------------------|--------------------------------|
B| 6------ 6---- 6-- 6------ 8 6--| 6------ 6---- 6-------- 6-- 6--|
G| 7------------ 7 7--------------| 5------ 5---- 5---- 5 7-- 7-- 7|
D| 5------ 5---- 5-- 5---- 5------| 7------ 7---- 7-------- 7------|
A| 6------------------ 6----------| 5------------------ 5----------|
E|--------------------------------|--------------------------------|
ClassicalGuitarTablature http://classicalguitartablature.blogspot.com/
E|---------------------------- 8--| 8-------------------------- 3--|
B| 6------ 6---- 6----------------|11------11------10------11-- 3--|
G|-------- 7---- 7-------- 5------|10------10------10------10-- 3--|
D| 7------ 7----------------------|-------- 8------ 8------ 8------|
A|--------------------------------|10--10--10--10--10--10--10------|
E| 6------------------ 5----------|--------------------------------|
ClassicalGuitarTablature http://classicalguitartablature.blogspot.com/
E|--------------------------------|---------------- 6-- 5-- 6-- 5--|
B|--------------------------------| 3-- 3--------------------------|
G|-- 3---- 5-------- 7------ 7----| 3 3 3------ 5------------------|
D| 3------ 5-------- 7------ 7----| 3 3 3--------------------------|
A|--------------------------------| 3------------------------------|
E| 3------ 5------ 6------ 7------|--------------------------------|
ClassicalGuitarTablature http://classicalguitartablature.blogspot.com/
E| 3-- 3 1------------------------|-------------------- 5------ 6--|
B| 1------------------------------|---- 4------ 3------ 4------ 3--|
G|---------------------------- 5--|---- 5------ 5------ 2------ 3--|
D|---------------- 7-- 8-- 9-- 7--|---- 4------ 4------------------|
A|---------------- 8-- 7-- 6-- 5--|------------ 5------------------|
E| 1------------------------------|---- 5-------------- 2------ 3--|
ClassicalGuitarTablature http://classicalguitartablature.blogspot.com/
E|--------------------------------|--------------------------------|
B|-------- 3----------------------|--------------------------------|
G|-------- 3------------------ 2--|---- 3------ 0------ 3------ 2--|
D|---- 3------ 3-- 5-- 7-- 8-- 2--|---- 2------ 2------ 2------ 3--|
A|-------------------- 5--10-- 3--|------------ 3------------------|
E|---------------- 3--------------|---- 3-------------- 3----------|
ClassicalGuitarTablature http://classicalguitartablature.blogspot.com/
E|--------------------------------|-------------------- 5------ 6--|
B|------ 1------------------------|---- 4------ 3------ 4------ 3--|
G|---------------------------- 5--|---- 5------ 5------ 2------ 3--|
D|---- 3-- 3------ 7-- 8-- 9-- 7--|---- 4------ 4------------------|
A|---------------- 8-- 7-- 6-- 5--|------------ 5------------------|
E| 1------------------------------|---- 5-------------- 2------ 3--|
ClassicalGuitarTablature http://classicalguitartablature.blogspot.com/
E|--------------------------------|--------------------------------|
B|-------- 3----------------------|--------------------------------|
G|-------- 3------------------ 2--|---------- 2------------ 3------|
D|---- 3------ 3-- 5-- 7-- 8------|---- 2---------- 2------ 2------|
A|-------------------- 5--10------| 3------------------------------|
E|---------------- 3--------------|---------------------- 2--------|
ClassicalGuitarTablature http://classicalguitartablature.blogspot.com/
E|--------------------------------|--------------------------------|
B|--------------------------------|-------------- 1----------------|
G|------ 3------------------------|------------ 0------------------|
D| 2------------ 2----------------|------------ 0------------------|
A|--------------------------------|--------------------------------|
E|--------------------------------|---------- 1--------------------|
ClassicalGuitarTablature http://classicalguitartablature.blogspot.com/

0 ความคิดเห็น:

แสดงความคิดเห็น