To celebrate the anniversary, I am giving you (finally...) : iPhone LickByNeck !!!!!!

River Flows In You - Twilight Theme (BASIC)

Yiruma's tune fingerstyle chord melody guitar BASIC arrangement played in the key of Em.
You need to install the Flash plugin - http://www.webestools.com/
River Flows in You-Twilight-Yiruma-BASIC ARRANGEMENT played In the key of Em
ClassicalGuitarTablature http://classicalguitartablature.blogspot.com/
E|---------------- 3-------- 2----| 3---------- 2------------------|
B|---------------- 0--------------| 0-------------- 0------ 0------|
G|---------------- 0--------------|------ 0---------- 0------------|
D|-------------------- 2----------|--------------------------------|
A|--------------------------------|--------------------------------|
E|-------------- 0----------------|--------------------------------|
ClassicalGuitarTablature http://classicalguitartablature.blogspot.com/
E| 3---------------- 3------------|--------------------------------|
B| 3---------- 3---------------- 1|--------------------------------|
G| 0------------------------------|------ 0------------------------|
D|------ 2------------------ 0----|--------------------------------|
A| 3------------------------------|--------------------------------|
E|--------------------------------|--------------------------------|
ClassicalGuitarTablature http://classicalguitartablature.blogspot.com/
ClassicalGuitarTablature http://classicalguitartablature.blogspot.com/
E|---------------- 3-------- 2----| 3-------- 2---------------- 3--|
B|------------------ 0------ 0----| 0------------------------------|
G|------------------ 0------------|-- 0------------------ 0---- 0--|
D|---------------------- 2--------|------ 2-------- 2--------------|
A|--------------------------------|---------------------------- 3--|
E|------------------ 0------------|--------------------------------|
ClassicalGuitarTablature http://classicalguitartablature.blogspot.com/
E|------------ 3------------------|--------------------------------|
B|-------- 3------------------ 1--|--------------------------------|
G|--------------------------------|--------------------------------|
D|-- 2----------------------------|--------------------------------|
A|--------------------------------|--------------------------------|
E|--------------------------------|--------------------------------|
ClassicalGuitarTablature http://classicalguitartablature.blogspot.com/
E| 3------ 2-- 3------ 2------ 3--|------------ 3------------------|
B| 0------ 0-- 0------------------|-------- 3-------------- 1------|
G|---- 0---------- 0------ 0------|-------------------- 0----------|
D|--------------------------------|---- 2--------------------------|
A|--------------------------------| 3-------------- 3--------------|
E| 0------------------------------|--------------------------------|
ClassicalGuitarTablature http://classicalguitartablature.blogspot.com/
E|--------------------------------|--------------------------------|
B| 0------ 1------ 3------ 0------|------------ 0------------------|
G|-------- 0------ 0--------------| 2------ 2------ 2------ 0------|
D|---- 0------ 0------ 0------ 0--|---- 4-------------- 4------ 4--|
A|--------------------------------| 5------------------------------|
E| 3------------------------------|--------------------------------|
ClassicalGuitarTablature http://classicalguitartablature.blogspot.com/
E|--------------------------------|--------------------------------|
B|------------ 0------------------| 0---------- 0---------- 0-- 1--|
G| 0------ 0---------- 0-- 0-- 2--|-------- 0---------- 0----------|
D|---- 2---------- 2--------------|---- 2---------- 2--------------|
A|--------------------------------| 3------------------------------|
E| 0------------------------------|--------------------------------|
ClassicalGuitarTablature http://classicalguitartablature.blogspot.com/
E|--------------------------------|--------------------------------|
B| 3---------- 3---------- 1 0----|------------ 0------------------|
G|-------- 0---------- 0----------| 2------ 2---------- 2----------|
D|---- 0---------- 0--------------|---- 4------------------ 4------|
A|--------------------------------| 5------------------------------|
E| 3------------------------------|--------------------------------|
ClassicalGuitarTablature http://classicalguitartablature.blogspot.com/
E| 3------ 2-- 3------ 2------ 3--|------------ 3------------------|
B| 0------ 0-- 0------------------|-------- 3-------------- 1------|
G|---- 0---------- 0------ 0------|-------------------- 0----------|
D|--------------------------------|---- 2--------------------------|
A|--------------------------------| 3-------------- 3--------------|
E| 0------------------------------|--------------------------------|
ClassicalGuitarTablature http://classicalguitartablature.blogspot.com/
E|------------------------ 5 6----| 5------------------------------|
B| 0------ 1------ 3--------------| 7---------- 7------------------|
G| 0------------------------------|-------- 7------ 7------ 0------|
D|---- 0------ 0------ 0----------|---- 7-------------- 7------ 4--|
A|--------------------------------| 5------------------------------|
E| 3------------------------------|--------------------------------|
ClassicalGuitarTablature http://classicalguitartablature.blogspot.com/
E|--------------------------------|--------------------------------|
B|------------ 0------------------| 0---------- 0---------- 0-- 1--|
G| 0------ 0---------- 0-- 0-- 2--|-------- 0---------- 0----------|
D|---- 2---------- 2--------------|---- 2---------- 2--------------|
A|--------------------------------| 3------------------------------|
E| 0------------------------------|--------------------------------|
ClassicalGuitarTablature http://classicalguitartablature.blogspot.com/
E|--------------------------------|--------------------------------|
B| 3---------- 3---------- 1 0----|------------ 0------------------|
G|-------- 0---------- 0----------| 2------ 2------ 0-- 2-- 0------|
D|---- 0---------- 0--------------|---- 4---------------------- 4--|
A|--------------------------------| 5------------------------------|
E| 3------------------------------|--------------------------------|
ClassicalGuitarTablature http://classicalguitartablature.blogspot.com/
E|--------------------------------|--------------------------------|
B|---- 0--------------------------|---- 0--------------------------|
G| 0---------- 0-- 0-- 2-- 0------| 0---------- 0-- 0-- 2-- 0------|
D|-------- 0------------------ 4--|-------- 0------------------ 4--|
A|--------------------------------| 3------------------------------|
E| 0------------------------------|--------------------------------|
ClassicalGuitarTablature http://classicalguitartablature.blogspot.com/
E|--------------------------------|--------------------------------|
B|------ 0-- 1-- 3---- 0----------|-------- 0----------------------|
G| 0-- 2-------- 0-------- 2 0----|---- 2------ 2-- 0-- 2-- 0------|
D| 0------------ 0----------------| 4-------------------------- 4--|
A|--------------------------------| 5------------------------------|
E| 3-------------- 3--------------|--------------------------------|
ClassicalGuitarTablature http://classicalguitartablature.blogspot.com/
E|--------------------------------|--------------------------------|
B|---- 0--------------------------|---- 0--------------------------|
G| 0---------- 0-- 0-- 2-- 0------| 0---------- 0-- 0-- 2-- 0------|
D|-------- 0------------------ 4--|-------- 0------------------ 4--|
A|--------------------------------| 3------------------------------|
E| 0------------------------------|--------------------------------|
ClassicalGuitarTablature http://classicalguitartablature.blogspot.com/
E|--------------------------------|------------ 0-- 3-- 3 5 3-- 2--|
B|------ 0-- 1-- 3---- 0----------|-------- 3----------------------|
G| 0-- 2-------- 0-------- 2 0----|---- 2--------------------------|
D| 0------------ 0----------------| 4------------------------------|
A|--------------------------------| 5-------------- 0--------------|
E| 3-------------- 3--------------|--------------------------------|
ClassicalGuitarTablature http://classicalguitartablature.blogspot.com/
E| 3-------------- 3-- 3 5 3-- 2--| 3-------------- 3-- 3 5 3-- 2--|
B| 3------ 3----------------------| 3------ 3------ 3-- 3----------|
G|--------------------------------|--------------------------------|
D|---- 0------ 0------------------|---- 0--------------------------|
A|--------------------------------| 3------------------------------|
E| 0------------------------------|--------------------------------|
ClassicalGuitarTablature http://classicalguitartablature.blogspot.com/
E|-------- 7-- 8--10-- 7----------| 2-------------- 3-- 3-- 3-- 2--|
B| 8--10------------------10-- 8--|------------ 3------------------|
G| 0------------------------------|-------- 2----------------------|
D|--------------------------------|---- 4--------------------------|
A|10----------10------------------| 5------------------------------|
E|--------------------------------|--------------------------------|
ClassicalGuitarTablature http://classicalguitartablature.blogspot.com/
E| 3-------------- 3-- 3 5 3-- 2--| 3-------------- 3-- 3 5 3-- 2--|
B| 3------ 3----------------------| 3------ 3------ 3-- 3----------|
G|--------------------------------|--------------------------------|
D|---- 0------ 0------------------|---- 0--------------------------|
A|--------------------------------| 3------------------------------|
E| 0------------------------------|--------------------------------|
ClassicalGuitarTablature http://classicalguitartablature.blogspot.com/
E|-------------- 7---- 8----10----| 7------------------------ 2----|
B|-- 8----10----------------------|--------10------ 8--------------|
G|-- 0----------------------------|-------------------------- 2----|
D|--------------------------------|--------------------------------|
A|10------------------------------|10---------------------- 5------|
E|--------------------------------|--------------------------------|
ClassicalGuitarTablature http://classicalguitartablature.blogspot.com/
E|--------------------------------|--------------------------------|
B|------ 3------------------------|--------------------------------|
G|------------------ 2------------|--------------------------------|
D|------------------------------ 4|--------------------------------|
A|--------------------------------|--------------------------------|
E|--------------------------------|--------------------------------|
ClassicalGuitarTablature http://classicalguitartablature.blogspot.com/
E|---------------------- 3--------|-- 2---- 3---------- 2----------|
B|---------------------- 0--------|-- 0---- 0----------------------|
G|-------------------- 0----------|-- 0---- 0---- 0------------ 0--|
D|--------------------------------|--------------------------------|
A|--------------------------------|--------------------------------|
E|------------------ 0------------|--------------------------------|
ClassicalGuitarTablature http://classicalguitartablature.blogspot.com/
E|---------- 3---------------- 3--|--------------------------------|
B|---------- 1---------- 3--------|-------- 1------------------ 0--|
G|-------------- 0------ 0--------|-------------------- 0----------|
D|---------------- 2--------------|-- 2------------ 2--------------|
A|--------------------------------|---------------------------- 5--|
E|---------- 0--------------------|--------------------------------|
ClassicalGuitarTablature http://classicalguitartablature.blogspot.com/
E|--------------------------------|--------------------------------|
B|-------------------- 3----------|-- 0----------------------------|
G|-------- 5----------------------|------------------ 2------------|
D|-- 5---------- 5---------- 5----|-------- 5-------- 4------------|
A|--------------------------------|---------------- 5--------------|
E|--------------------------------|--------------------------------|
ClassicalGuitarTablature http://classicalguitartablature.blogspot.com/

0 ความคิดเห็น:

แสดงความคิดเห็น