To celebrate the anniversary, I am giving you (finally...) : iPhone LickByNeck !!!!!!

Sweet Love (BASIC)

Anita Baker's tune fingerstyle chord melody guitar BASIC arrangement played in the key of Bb.

Sweet Love-Anita Baker-BASIC ARRANGEMENT played in the key of Bb.
ClassicalGuitarTablature http://classicalguitartablature.blogspot.com/
E|--------------------------------|--------------------------------|
B| 3---- 3---- 3---------- 3------| 2---- 2---- 2---------- 2------|
G| 2---- 2---- 2------ 2---- 2----| 3---- 3---- 3---------- 3------|
D| 3---- 3---- 3---- 3-- 3---- 3--| 3---- 3---- 3---- 3------------|
A| 1---------- 1------------------|--------------------------------|
E|--------------------------------| 2---------- 2-------------- 1--|
ClassicalGuitarTablature http://classicalguitartablature.blogspot.com/
E|--------------------------------|--------------------------------|
B| 7---- 7---- 7-------- 7------ 2|-- 2------ 1---------- 1--------|
G| 6---- 6---- 6---- 6-- 6-- 6-- 3|-- 3------ 3---------- 3--------|
D| 4---- 4---- 4-- 4-- 4-------- 4|---- 4---- 1-------- 1----------|
A| 6---------- 6------------------|--------------------------------|
E|------------------------------ 4|-- 4-------- 1-------------- 1--|
ClassicalGuitarTablature http://classicalguitartablature.blogspot.com/
ClassicalGuitarTablature http://classicalguitartablature.blogspot.com/
E|--------------------------------|--------------------------------|
B| 3---- 3---- 3---------- 3------| 2---- 2---- 2---------- 2------|
G| 2---- 2---- 2------ 2---- 2----| 3---- 3---- 3---------- 3------|
D| 3---- 3---- 3---- 3-- 3---- 3--| 3---- 3---- 3---- 3------------|
A| 1---------- 1------------------|--------------------------------|
E|--------------------------------| 2---------- 2-------------- 1--|
ClassicalGuitarTablature http://classicalguitartablature.blogspot.com/
E|--------------------------------|------------------------ 1------|
B| 4---- 4---- 4---------- 4------|---- 2------ 2---------- 1------|
G| 6---- 6---- 6---------- 6------|---- 3------ 3---------- 3------|
D| 4---- 4---- 4------ 4------ 4--|---- 4------ 4------------------|
A| 6---------- 6------------------|--------------------------------|
E|--------------------------------|---- 4------ 4---------- 1------|
ClassicalGuitarTablature http://classicalguitartablature.blogspot.com/
E|------------ 1------------------|--------------------------------|
B| 3------ 4---------- 3----------|---- 6---- 4------------------ 2|
G| 2------------------------------|---- 6---- 6-------- 6-------- 3|
D|---- 3------------------ 3-- 4--|---- 4------ 4---------- 4---- 4|
A| 1---------- 1------------------| 6-------- 6--------------------|
E|--------------------------------|------------------------------ 2|
ClassicalGuitarTablature http://classicalguitartablature.blogspot.com/
E|--------------------------------|--------------------------------|
B|---- 2------ 4------------------|---- 4------ 2------ 2-- 4-- 6--|
G|---- 3------ 3-------- 3--------|---- 1------ 3---------------- 7|
D|---- 4-- 4-- 4------ 4------ 4--| 3-- 3-- 3-- 4-------------- 8--|
A|--------------------------------|--------------------------------|
E|------------ 2------------------| 1---------- 4------------------|
ClassicalGuitarTablature http://classicalguitartablature.blogspot.com/
E|--------------------------------|--------------------------------|
B|--------------------------------|---- 6---- 4------------------ 2|
G|--------------------------------|---- 6---- 6-------- 6-------- 3|
D|--------10 8---------------- 4--|---- 4------ 4---------- 4---- 4|
A|---- 8-------------- 8----------| 6-------- 6--------------------|
E| 6------------------------------|------------------------------ 2|
ClassicalGuitarTablature http://classicalguitartablature.blogspot.com/
E|--------------------------------|--------------------------------|
B|---- 2------ 4------------------|-- 4-------- 2------ 2-- 4-- 6--|
G|---- 3------ 3-------- 3--------|-- 3-------- 3---------- 3-- 7--|
D|---- 4-- 4-- 4------ 4------ 4 3|-------- 3-- 4---------- 1-- 7--|
A|--------------------------------|--------------------------------|
E|------------ 2------------------| 4---------- 4---------- 1------|
ClassicalGuitarTablature http://classicalguitartablature.blogspot.com/
E|------------------ 6-------- 6--|---- 6-- 6-- 6---- 6---- 8-- 9--|
B|---- 6-- 6-- 6 6-------- 6------|---- 7-- 7-- 7-- 7------ 7--11--|
G|---- 7-- 7-- 7-- 7 7------------|---- 8------ 8---------- 8--10--|
D|---- 7-- 7-- 7-- 7--------------|------------ 8------------------|
A|------------ 8-------------- 8--| 6-------------------------- 6--|
E| 6---------------------- 6------|------------------------ 6------|
ClassicalGuitarTablature http://classicalguitartablature.blogspot.com/
E|----11 8---- 9-- 6-------- 4----|------------ 1------------------|
B|----11------ 6-- 6 9 6---- 4----|---- 6-- 4-- 1---- 2-- 4---- 6--|
G|----10------ 6-- 6 6------ 5----|------------ 3---- 3-------- 7--|
D|-------------------- 8----------|---- 6------------ 1 3------ 7--|
A| 9---------- 6-------------- 6--|--------------------------------|
E|---- 9------------------ 6------| 4---------- 1-------- 1--------|
ClassicalGuitarTablature http://classicalguitartablature.blogspot.com/
E|------------------ 6-------- 6--|---- 6-- 6-- 6---- 6---- 8-- 9--|
B|---- 6-- 6-- 6 6-------- 6------|---- 7-- 7-- 7-- 7------ 7--11--|
G|---- 7-- 7-- 7-- 7 7------------|---- 8------ 8---------- 8--10--|
D|---- 7-- 7-- 7-- 7--------------|------------ 8------------------|
A|------------ 8-------------- 8--| 6-------------------------- 6--|
E| 6---------------------- 6------|------------------------ 6------|
ClassicalGuitarTablature http://classicalguitartablature.blogspot.com/
E|----11 8---- 9-- 6--------------| 4-- 2-- 1------ 1------ 1------|
B|----11------ 6-- 6 9 6------ 6 7| 2---- 1---- 4-- 4------ 4-- 4 2|
G|----10------ 6-- 6 6------------| 3---------- 3-- 3------ 3------|
D|-------------------- 8----------|------------ 1------------------|
A| 9---------- 6-------------- 6--|--------------------------------|
E|---- 9------------------ 6------| 4---------- 1------------------|
ClassicalGuitarTablature http://classicalguitartablature.blogspot.com/
E|--------------------------------|--------------------------------|
B|------------------ 9-- 6-- 4----|------ 4-- 6------ 6------------|
G|------ 5---- 6---- 6-- 6---- 5--|------ 5-- 7---------- 8 6------|
D|---- 8------ 8---- 8---- 8-- 6--|------ 6-- 6-------------- 8----|
A| 6---------- 6------------------|--------------------------------|
E|------------------------------ 6|------------ 6------------------|
ClassicalGuitarTablature http://classicalguitartablature.blogspot.com/
E|--------------------------------|--------------------------------|
B|---------------------- 6-- 4----|------ 4-- 6------ 6------------|
G|------ 5---- 6---- 8------------|------ 5-- 7---------- 8 6------|
D|---- 8------ 8-------------- 6--|------ 6-- 6-------------- 8----|
A| 6---------- 6------------------|--------------------------------|
E|------------------------------ 6|------------ 6------------------|
ClassicalGuitarTablature http://classicalguitartablature.blogspot.com/
E|--------------------------------|--------------------------------|
B|-------------------- 9-- 6-- 4--|------ 4---- 6---------- 6-- 7--|
G|-------- 5-- 6------ 6-- 6-- 5--|------ 5---- 7------ 8------ 8--|
D|---- 8-- 8-- 8------ 8-- 8-- 6--|------ 6---- 6-------------- 9--|
A| 6---------- 6------------------|--------------------------------|
E|--------------------------------| 6---------- 6------------------|
ClassicalGuitarTablature http://classicalguitartablature.blogspot.com/
E|---------------------------- 1--|--------------------------------|
B|---- 9 7---- 6------ 4 6---- 1--|------------------ 2-- 4---- 6--|
G|---- 8 8---- 6-- 6---------- 3--|---- 3---- 3---------------- 7--|
D|---- 9 9---- 4------------------|---- 1---- 1---------------- 7--|
A|--------------------------------|--------------------------------|
E| 7-------------- 6------------ 1|-------- 1 1--------------------|
ClassicalGuitarTablature http://classicalguitartablature.blogspot.com/
E|------------------ 6-------- 6--|---- 6-- 6-- 6---- 6---- 8-- 9--|
B|---- 6-- 6-- 6 6-------- 6------|---- 7-- 7-- 7-- 7------ 7--11--|
G|---- 7-- 7-- 7-- 7 7------------|---- 8------ 8---------- 8--10--|
D|---- 7-- 7-- 7-- 7--------------|------------ 8------------------|
A|------------ 8-------------- 8--| 6-------------------------- 6--|
E| 6---------------------- 6------|------------------------ 6------|
ClassicalGuitarTablature http://classicalguitartablature.blogspot.com/
E|----11 8---- 9-- 6-------- 4----|------------ 1------------------|
B|----11------ 6-- 6 9 6---- 4----|---- 6-- 4-- 1---- 2-- 4---- 6--|
G|----10------ 6-- 6 6------ 5----|------------ 3---- 3-------- 7--|
D|-------------------- 8----------|---- 6------------ 1 3------ 7--|
A| 9---------- 6-------------- 6--|--------------------------------|
E|---- 9------------------ 6------| 4---------- 1-------- 1--------|
ClassicalGuitarTablature http://classicalguitartablature.blogspot.com/
E|------------------ 6-------- 6--|---- 6-- 6-- 6---- 6---- 8-- 9--|
B|---- 6-- 6-- 6 6-------- 6------|---- 7-- 7-- 7-- 7------ 7--11--|
G|---- 7-- 7-- 7-- 7 7------------|---- 8------ 8---------- 8--10--|
D|---- 7-- 7-- 7-- 7--------------|------------ 8------------------|
A|------------ 8-------------- 8--| 6-------------------------- 6--|
E| 6---------------------- 6------|------------------------ 6------|
ClassicalGuitarTablature http://classicalguitartablature.blogspot.com/
E|----11 8---- 9-- 6--------------| 4-- 2-- 1------ 1------ 1------|
B|----11------ 6-- 6 9 6------ 6 7| 2---- 1---- 4-- 4------ 4-- 4 2|
G|----10------ 6-- 6 6------------| 3---------- 3-- 3------ 3------|
D|-------------------- 8----------|------------ 1------------------|
A| 9---------- 6-------------- 6--|------------------------------ 1|
E|---- 9------------------ 6------| 4---------- 1------------------|
ClassicalGuitarTablature http://classicalguitartablature.blogspot.com/
E|------------ 1------------------|--------------------------------|
B| 3-- 4--------------------------|--------------------------------|
G| 2------------------------------|--------------------------------|
D| 3------------------------------|--------------------------------|
A|--------------------------------|--------------------------------|
E|--------------------------------|--------------------------------|
ClassicalGuitarTablature http://classicalguitartablature.blogspot.com/

0 ความคิดเห็น:

แสดงความคิดเห็น