To celebrate the anniversary, I am giving you (finally...) : iPhone LickByNeck !!!!!!

The Love Boat Theme (BASIC)

Jack Jones' tune fingerstyle chord melody guitar BASIC arrangement played in the key of G.
ClassicalGuitarTablature http://classicalguitartablature.blogspot.com/
You need to install the Flash plugin - http://www.webestools.com/
ClassicalGuitarTablature http://classicalguitartablature.blogspot.com/
The Love Boat Theme-Jack Jones-BASIC ARRANGEMENT played in the key of G ClassicalGuitarTablature http://classicalguitartablature.blogspot.com/
E|--------------------------------|---------- 2 3 5---------- 3----|
B| 3-------- 3--------------------|---------------------------- 1--|
G| 0---- 0---------- 0------ 0----|------ 0------------------------|
D|-- 0------------------ 0--------|-- 0----------------------------|
A|--------------------------------|--------------------------------|
E| 3---------------------------- 0|--------------------------------|
ClassicalGuitarTablature http://classicalguitartablature.blogspot.com/
E|--------------------------------|--------------------------------|
B|------------ 1------------------| 5---- 5------ 5------ 5------ 5|
G|-------- 0---------- 0------ 0--| 5------ 5---- 5------ 5------ 5|
D|---- 2------------------ 2------| 5------ 5---- 5------ 5--------|
A| 0------------------------------| 5------ 5---- 5------ 5--------|
E|--------------------------------|--------------------------------|
ClassicalGuitarTablature http://classicalguitartablature.blogspot.com/
E|------------------ 5-- 5--------|--------------------------------|
B|-- 7-- 7-- 8-- 8-------------- 3|--------------------------------|
G|------ 5-- 5-- 5----------------| 0-------- 0-------- 0----------|
D|------ 5-- 5--------------------| 0---------- 0------ 0----------|
A| 5------------ 5----------------|--------------------------------|
E|--------------------------------| 3-- 3------ 3-------------- 3--|
ClassicalGuitarTablature http://classicalguitartablature.blogspot.com/
E|---------------------- 0------ 2|---- 3---- 2--------------------|
B|------------------------------ 0|---- 0---- 0-- 0----------------|
G|---- 0------ 0---- 0------ 0-- 0|---- 0---- 0-- 0----------------|
D|---- 0------ 0------------------|-------------------- 0----------|
A|--------------------------------|--------------------------------|
E| 3---------- 3---------------- 0|------------ 0------------ 0-- 0|
ClassicalGuitarTablature http://classicalguitartablature.blogspot.com/
E|--------------------------------|------ 0---- 0------------------|
B|---------------- 0------ 3------| 3---- 3---- 3------------------|
G|---- 0------ 0-- 0--------------| 0---- 0---- 0------------------|
D|---- 0------ 0------ 0------ 0--| 2------------------ 2----------|
A|--------------------------------| 0---------- 0-------------- 0--|
E|------------ 0------------------|--------------------------------|
ClassicalGuitarTablature http://classicalguitartablature.blogspot.com/
E|-------------- 0------ 3--------|---- 5---- 5--------------------|
B|---- 3---------------- 3------ 8|---- 8---- 8--------------------|
G|---- 0---- 0------------------ 5|---- 5---- 5--------------------|
D|---- 2---- 2------ 2------ 2-- 5|-------------------- 5----------|
A| 0---------- 0 0-------------- 5|------------ 5-------------- 5--|
E|--------------------------------|--------------------------------|
ClassicalGuitarTablature http://classicalguitartablature.blogspot.com/
E|--------------------------------|--------------------------------|
B| 5-- 5---- 5---------- 8------ 3|--------------------------------|
G| 5-- 5---- 5--------------------| 0-------- 0-------- 0----------|
D| 5---------------- 5------------| 0---------- 0------ 0----------|
A| 5---------- 5------------------|--------------------------------|
E|--------------------------------| 3-- 3------ 3-------------- 3--|
ClassicalGuitarTablature http://classicalguitartablature.blogspot.com/
E|---------------------- 0------ 2|---- 3---- 2--------------------|
B|------------------------------ 0|---- 0---- 0-- 0----------------|
G|---- 0------ 0---- 0------ 0-- 0|---- 0---- 0-- 0----------------|
D|---- 0------ 0------------------|-------------------- 0----------|
A|--------------------------------|--------------------------------|
E| 3---------- 3---------------- 0|------------ 0------------ 0-- 0|
ClassicalGuitarTablature http://classicalguitartablature.blogspot.com/
E|--------------------------------|------ 0---- 0------------------|
B|---------------- 0------ 3------| 3---- 3---- 3------------------|
G|---- 0------ 0-- 0--------------| 0---- 0---- 0------------------|
D|---- 0------ 0------ 0------ 0--| 2------------------ 2----------|
A|--------------------------------| 0---------- 0-------------- 0--|
E|------------ 0------------------|--------------------------------|
ClassicalGuitarTablature http://classicalguitartablature.blogspot.com/
E|-------------- 0------ 3--------|---- 5---- 5--------------------|
B|---- 3---------------- 3------ 8|---- 8---- 8--------------------|
G|---- 0---- 0------------------ 5|---- 5---- 5--------------------|
D|---- 2---- 2------ 2------ 2-- 5|-------------------- 5----------|
A| 0---------- 0 0-------------- 5|------------ 5-------------- 5--|
E|--------------------------------|--------------------------------|
ClassicalGuitarTablature http://classicalguitartablature.blogspot.com/
E|------------------------------10|----10--------------------------|
B| 5-- 5---- 5---------- 8--------|----10----10--------------------|
G| 5-- 5---- 5------------------10|----10----10----------10--------|
D| 5---------------- 5------------|------------------10----------10|
A| 5---------- 5----------------10|----------10------------------10|
E|--------------------------------|--------------------------10----|
ClassicalGuitarTablature http://classicalguitartablature.blogspot.com/
E|--------------------10-------- 7|----10---- 8-- 7----------------|
B|----10----10--12----10----13----| 8-- 8---- 8-- 8------------ 8--|
G|----10----10--11----------12----| 9-- 9---- 9-------- 9------ 9--|
D|----10----10--10----------------|--------------------------------|
A|----------10--------------------|--------------------------------|
E|--------------------------------| 8-------------- 8---------- 8--|
ClassicalGuitarTablature http://classicalguitartablature.blogspot.com/
E|------------------------------ 8|--------------------------------|
B|---------------------- 8------ 8|---- 8---- 8-------- 8----------|
G|---------------- 9------------ 8|---- 8---- 8-------- 8----------|
D|--------------------------------|---- 8------ 8------ 8----------|
A|--------------------------------|--------------------------------|
E|---- 8---- 8---- 8--------------| 8---------- 8------------ 8----|
ClassicalGuitarTablature http://classicalguitartablature.blogspot.com/
E|-------------------- 8-------- 5|---- 8---- 6-- 5------------ 5--|
B|--------------10----10----11----|---- 6---- 6-- 6---- 6------ 5--|
G|---- 8-------- 8---- 8---- 8----| 7-- 7---- 7-- 7---- 7------ 7--|
D|---- 8---- 8-- 8----------------|-------------------- 5----------|
A| 8---------- 8-- 8--------------|--------------------------------|
E|--------------------------------| 6-------------- 6--------------|
ClassicalGuitarTablature http://classicalguitartablature.blogspot.com/
E|--------------------------------|-------------- 3----------------|
B|---- 5------ 5------ 6---- 5-- 6|---- 5---- 6-- 6---- 6---- 5-- 6|
G|---- 7------ 6------ 6---- 6----| 5-- 5---- 5-- 5---- 5---- 5-- 5|
D|---- 5------ 5------ 5---- 5----| 3-------- 3-------- 3---- 3-- 3|
A|--------------------------------| 5-------- 5--------------------|
E| 5---------- 5------------------|---------------- 4-- 4------ 4--|
ClassicalGuitarTablature http://classicalguitartablature.blogspot.com/
E|-------------- 3------ 5--------|--------------------------------|
B|---- 5---- 6---------- 4------ 5|------ 5---- 5---- 5------------|
G|---- 5---- 4-- 4------ 4------ 4|---- 4------ 4---- 4------------|
D|---- 3--------------------------|------ 5---------- 5------------|
A|---------------- 4------ 4------| 3---------- 3------------ 3-- 5|
E| 3-------- 3--------------------|--------------------------------|
ClassicalGuitarTablature http://classicalguitartablature.blogspot.com/
E|--------------------------------|--------------------------------|
B|---- 5---- 5---------- 7------ 3|--------------------------------|
G|---- 5------ 5------------------| 0-------- 0-------- 0----------|
D|---- 5------ 5---- 5------------| 0---------- 0------ 0----------|
A|------------ 5------------------|--------------------------------|
E|--------------------------------| 3-- 3------ 3-------------- 3--|
ClassicalGuitarTablature http://classicalguitartablature.blogspot.com/
E|---------------------- 0------ 2|---- 3---- 2--------------------|
B|------------------------------ 0|---- 0---- 0-- 0----------------|
G|---- 0------ 0---- 0------ 0-- 0|---- 0---- 0-- 0----------------|
D|---- 0------ 0------------------|-------------------- 0----------|
A|--------------------------------|--------------------------------|
E| 3---------- 3---------------- 0|------------ 0------------ 0-- 0|
ClassicalGuitarTablature http://classicalguitartablature.blogspot.com/
E|--------------------------------|------ 0---- 0------------------|
B|---------------- 0------ 3------| 3---- 3---- 3------------------|
G|---- 0------ 0-- 0--------------| 0---- 0---- 0------------------|
D|---- 0------ 0------ 0------ 0--| 2------------------ 2----------|
A|--------------------------------| 0---------- 0-------------- 0--|
E|------------ 0------------------|--------------------------------|
ClassicalGuitarTablature http://classicalguitartablature.blogspot.com/
E|-------------- 0------ 3--------|---- 5---- 5--------------------|
B|---- 3---------------- 3------ 8|---- 8---- 8--------------------|
G|---- 0---- 0------------------ 5|---- 5---- 5--------------------|
D|---- 2---- 2------ 2------ 2-- 5|-------------------- 5----------|
A| 0---------- 0 0-------------- 5|------------ 5-------------- 5--|
E|--------------------------------|--------------------------------|
ClassicalGuitarTablature http://classicalguitartablature.blogspot.com/
E|------------------------------10|--------------------------------|
B| 5-- 5---- 5---------- 8------ 7|------------ 7-------- 7 7------|
G| 5-- 5---- 5--------------------|---- 9------ 7---- 9-------- 9--|
D| 5---------------- 5------------|--------------------------------|
A| 5---------- 5----------------10|------------10------------------|
E|--------------------------------|--------------------------------|
ClassicalGuitarTablature http://classicalguitartablature.blogspot.com/
E|--------------------------------|---------------------- 5------ 7|
B| 7---------- 7-------- 7-- 7-- 5|---- 8---- 5---- 8---- 5------ 8|
G|------ 9---- 7------ 9------ 9 5|---- 5---- 5---- 5---- 5------ 7|
D|------------ 9------------------| 5-- 5------ 5-- 5--------------|
A|--------------------------------|---------------- 5------ 5------|
E| 0---------- 0------------------| 5---- 5---- 5------------------|
ClassicalGuitarTablature http://classicalguitartablature.blogspot.com/
E|---- 7---- 7------ 7---------- 8|---- 8------ 8------ 8------10--|
B|---- 8---- 8------ 8---------- 8|---- 8------ 8------ 8------10--|
G|---- 7---- 7------ 7---------- 9|---- 9------ 9------ 9------ 9--|
D|--------------------------------|--------------------------------|
A|10----------10------------10----|----------------------------10--|
E|--------------------------------|10----------10------------------|
ClassicalGuitarTablature http://classicalguitartablature.blogspot.com/

0 ความคิดเห็น:

แสดงความคิดเห็น