To celebrate the anniversary, I am giving you (finally...) : iPhone LickByNeck !!!!!!

Wake Me Up Before You Go Go (BASIC)

Wham's tune fingerstyle chord melody guitar BASIC arrangement played in the key of E.
Wake Me Up Before You Go Go-Wham-BASIC Arrangement played in the key of E.
ClassicalGuitarTablature http://classicalguitartablature.blogspot.com/
E|--------------------------------|--------------------------------|
B|--------------------------------|--------------------------------|
G|--------------------------------|--------------------------------|
D|--------------------------------|--------------------------------|
A|--------------------------------| 7------ 7----------------------|
E|-------------------- 7-- 9---- 7|--------------------------------|
ClassicalGuitarTablature http://classicalguitartablature.blogspot.com/
E|--------------------------------|--------------------------------|
B|--------------------------------|--------------------------------|
G|--------------------------------|--------------------------------|
D|--------------------------------|--------------------------------|
A|--------------------------------| 7------ 7----------------------|
E|-------------------- 7 9---- 7--|--------------------------------|
ClassicalGuitarTablature http://classicalguitartablature.blogspot.com/
ClassicalGuitarTablature http://classicalguitartablature.blogspot.com/
E|--------------------------------|---------------------------- 0--|
B|-------------------- 0 2---- 0--|-------------------- 0 2--------|
G|--------------------------------|---------------- 1--------------|
D|--------------------------------| 2------ 2----------------------|
A|--------------------------------|--------------------------------|
E|--------------------------------| 0------ 0------ 0--------------|
ClassicalGuitarTablature http://classicalguitartablature.blogspot.com/
E|---------------------------- 7--| 5------ 4------ 2--------------|
B|-------------------- 9 9--------| 2------ 2------ 2-- 5-- 5-- 2--|
G|--------------------------------| 2------ 2------ 2--------------|
D|--------------------------------|--------------------------------|
A| 7---------- 7------------------|--------------------------------|
E|---- 7-- 9----------------------| 2------ 2------ 2--------------|
ClassicalGuitarTablature http://classicalguitartablature.blogspot.com/
E| 0-- 0--------------------------|---------------------------- 0--|
B|------------ 2------ 0----------|-------------------- 0 2--------|
G|--------------------------------|---------------- 1--------------|
D|--------------------------------| 2------ 2----------------------|
A|---- 2-- 4----------------------|--------------------------------|
E| 0---------- 0------------------| 0------ 0------ 0--------------|
ClassicalGuitarTablature http://classicalguitartablature.blogspot.com/
E|---------------------------- 7--| 9------------------------------|
B|-------------------- 9 9--------| 9------ 9----------------------|
G|--------------------------------| 9------ 9------11-- 9 9--------|
D|--------------------------------|--------11------11----------11--|
A| 7---------- 7------------------| 9------ 9------ 9--------------|
E|---- 7-- 9----------------------|--------------------------------|
ClassicalGuitarTablature http://classicalguitartablature.blogspot.com/
E| 0-- 0--------------------------| 2-- 2-------------- 2------ 2--|
B|------------ 2------ 0----------| 2-- 2------ 5---- 2------------|
G|--------------------------------| 2-- 2------ 2------------------|
D|--------------------------------|------------ 2------------------|
A|---- 2-- 4----------------------|--------------------------------|
E| 0---------- 0------------------| 2---------- 2------------------|
ClassicalGuitarTablature http://classicalguitartablature.blogspot.com/
E| 4-- 4--------------------------| 5-- 5------ 4------ 5------ 5--|
B| 5-- 5------ 7------ 5------ 5--| 2-- 2------ 2------ 2----------|
G| 4-- 4------ 4------------------| 2-- 2------ 2------ 2----------|
D|------------ 6------------------|--------------------------------|
A|--------------------------------| 0---------- 0------ 0----------|
E| 4------------ 4----------------|--------------------------------|
ClassicalGuitarTablature http://classicalguitartablature.blogspot.com/
E| 4-- 7------ 4------------------| 2-- 2-------------- 2------ 2--|
B| 5-- 5------ 4-------------- 5--| 2-- 2------ 5---- 2------------|
G| 4-- 4------ 4------ 4----------| 2-- 2------ 2------------------|
D|--------------------------------|------------ 2------------------|
A|---------------------- 4--------|--------------------------------|
E| 4---------- 4------------------| 2---------- 2------------------|
ClassicalGuitarTablature http://classicalguitartablature.blogspot.com/
E| 4-- 4--------------------------| 5-- 5------ 4------ 5------ 5--|
B| 5-- 5------ 7------ 5------ 5--| 2-- 2------ 2------ 2----------|
G| 4-- 4------ 4------------------| 2-- 2------ 2------ 2----------|
D|------------ 6------------------|--------------------------------|
A|--------------------------------| 0---------- 0------ 0----------|
E| 4------------ 4----------------|--------------------------------|
ClassicalGuitarTablature http://classicalguitartablature.blogspot.com/
E| 9-- 7 7------ 7------------ 9--|-------- 9---------- 7------ 9--|
B| 7---------- 9 7---- 9----------|-------- 9------ 9---------- 9--|
G| 8------------------------------|---------------------------- 9--|
D|--------------------------------|--------------------------------|
A|--------------------------------|--------------------------------|
E| 7------ 7------ 7------ 7------|-------- 7----------------------|
ClassicalGuitarTablature http://classicalguitartablature.blogspot.com/
E|-------------- 7---- 9----------|--------------------------------|
B|------------ 9-------------- 9--|---------------- 7---- 9----10--|
G|--------------------------------|---- 9------ 9-------------- 9--|
D|--------------------------------|---------------------------- 7--|
A| 7---------- 7-------------- 7--|------------ 7------------------|
E|---- 7 9------------ 7-- 9------|------ 7 9------------ 7 9------|
ClassicalGuitarTablature http://classicalguitartablature.blogspot.com/
E|-------------------- 7----------|-------------------- 7-------- 9|
B|---- 9-- 7------ 9---------- 9--|---------------- 9------------ 9|
G|------------ 9------------------|---- 9------------------------ 9|
D|--------------------------------|--------------------------------|
A| 9---------- 9-------------- 7--|-------- 4-------------- 4------|
E|---- 7-- 9---------- 7-- 9------|---- 4------ 7------ 7----------|
ClassicalGuitarTablature http://classicalguitartablature.blogspot.com/
E|-------------- 7---- 9----------|--------------------------------|
B|------------ 9-------------- 9--|---------------- 7-- 9-- 7--10--|
G|--------------------------------|---- 9------ 9-------------- 9--|
D|--------------------------------|--------------------------------|
A| 7---------- 7-------------- 7--|------------ 7------------------|
E|---- 7 9------------ 7-- 9------|------ 7 9------------ 7 9------|
ClassicalGuitarTablature http://classicalguitartablature.blogspot.com/
E|--------------------------------|----------------12---- 9------ 7|
B|-- 9----------------------------|------------------------------ 9|
G|-------- 9-- 6-- 9-- 9------ 6--|------------------------------ 9|
D|--------------------------------|---- 9--------------------------|
A| 9---------- 9------------------|--------------------------------|
E|---- 7-- 9---------- 7-- 9---- 0|---- 4---------- 5------ 7------|
ClassicalGuitarTablature http://classicalguitartablature.blogspot.com/
E|---------------- 7-- 9----------|--------------------------------|
B|------------ 9-------------- 9--|---------------- 7---- 9----10--|
G|--------------------------------|---- 9-------- 9-- 9 9------ 9--|
D|--------------------------------|---------------------------- 7--|
A| 7---------- 7-------------- 7--|------------ 7------------------|
E|---- 7 9------------ 7-- 9------|------ 7 9------------ 7 9------|
ClassicalGuitarTablature http://classicalguitartablature.blogspot.com/
E|-------------------- 7----------|-------------------- 7------ 9--|
B|---- 9-- 7------ 9---------- 9--|---------------- 9---------- 9--|
G|------------ 9------------------|---- 9---------------------- 9--|
D|--------------------------------|--------------------------------|
A| 9---------- 9-------------- 7--|-------- 4-------------- 4------|
E|---- 7-- 9---------- 7-- 9------|---- 4------ 7------ 7----------|
ClassicalGuitarTablature http://classicalguitartablature.blogspot.com/
E|-------------- 7---- 9----------|--------------------------------|
B|------------ 9-------------- 9--|--------------------------------|
G|--------------------------------|---- 9-- 6---- 9----------------|
D|--------------------------------|--------------------------------|
A| 7---------- 7-------------- 7--|------------ 7------------------|
E|---- 7 9------------ 7-- 9------|------ 7 9------------ 7 9------|
ClassicalGuitarTablature http://classicalguitartablature.blogspot.com/
E| 4------ 0-- 2------ 4-- 2-- 2--|---- 0--------------------------|
B| 3---------- 2-------------- 3--|---- 3-- 3------ 3------ 3------|
G| 4---------- 2-------------- 1--|---------------- 1------ 1------|
D|--------------------------------|-------- 0------ 0------ 0------|
A|--------------------------------|--------------------------------|
E| 4---------- 2------------------| 0------------------------------|
ClassicalGuitarTablature http://classicalguitartablature.blogspot.com/
E|--------------------------------|--------------------------------|
B| 2------ 2------ 2------ 2------| 0------ 0------ 0------ 0------|
G| 2------ 2------ 2------ 2------| 1---- 1-------- 1------ 1------|
D| 2------ 2------ 2------ 2------| 0------ 0------ 0------ 0---- 0|
A|--------------------------------|--------------------------------|
E|--------------------------------|--------------------------------|
ClassicalGuitarTablature http://classicalguitartablature.blogspot.com/
E|------ 0-------- 0-- 0------12--|--------------------------------|
B| 0-- 2--------------------------|--------------------------------|
G|--------------------------------|-------- 9------ 9------ 9------|
D|--------------------------------|--------12------12------12------|
A|--------------------------------|--------------------------------|
E|--------------------------------| 0------------------------------|
ClassicalGuitarTablature http://classicalguitartablature.blogspot.com/
E|--------------------------------| 0------ 0------ 9------------ 7|
B|--------------------------------| 0------ 0------ 9--------------|
G| 9------ 9------ 9------ 9------|--------------------------------|
D|11------11------11------11------|--------------------------------|
A|--------------------------------|--------------------------------|
E|--------------------------------| 4------ 5------ 6------ 7------|
ClassicalGuitarTablature http://classicalguitartablature.blogspot.com/
E|--------------------------------| 0------ 0----------------------|
B|---- 9-- 7----------------------| 0------ 0----------------------|
G|------------ 9------------------| 1------ 1----------------------|
D|-------------------- 9--11-- 9--|--------------------------------|
A|--------------------------------|--------------------------------|
E| 9------10------10------10------| 0-------- 0--------------------|
ClassicalGuitarTablature http://classicalguitartablature.blogspot.com/

0 ความคิดเห็น:

แสดงความคิดเห็น