To celebrate the anniversary, I am giving you (finally...) : iPhone LickByNeck !!!!!!
0 com

Sunday Morning (BASIC)

Maroon 5's tune fingerstyle chord melody guitar BASIC arrangement played in the key of C.

Sunday Morning-Maroon 5-BASIC Arrangement played in the key of C.
http://classicalguitartablature.blogspot.com/
E|--------------------------------|--------------------------------|
B|-- 5-- 5-- 5------ 5------ 5----|-- 5---------- 5-- 5-- 5--------|
G|-- 5-- 5-- 5------ 4------ 4----|-- 4---------------- 4 4--------|
D|-- 3-- 3-- 3------ 3------ 3----|-- 5-- 5---------- 5-- 5--------|
A| 5-------- 5--------------------| 3---------------- 3---- 3---- 5|
E|-------------- 4---------- 3----|--------------------------------|
http://classicalguitartablature.blogspot.com/
E|--------------------------------|--------------------------------|
B|-- 5-- 5-- 5------ 5-- 5-- 5-- 5|-- 5-- 5 5---- 5----------------|
G|-- 5-- 5-- 5------ 4-- 4-- 4-- 4|-- 4-- 4 4---- 4----------------|
D|-- 3------ 3------ 3-- 3-- 3-- 3|-- 5---- 5---- 5----------------|
A|---------- 5--------------------| 3-------- 3 3 3-------------- 4|
E|-------------- 4 3-------- 3----|--------------------------------|
http://classicalguitartablature.blogspot.com/
http://classicalguitartablature.blogspot.com/
E|-------- 3---- 3------ 3--------|--------------------------------|
B|-- 5---- 5 5-- 3-- 5-- 3-- 5-- 3|-- 1---- 1---- 1-- 1-- 1--------|
G|-- 5---- 5 5-- 4-- 4-- 4-- 4-- 0|-- 0---- 0---- 0-- 0-- 0--------|
D|-- 3------ 3------ 3------ 3-- 2|-- 2---------- 2-- 2-- 2--------|
A| 5------------------------------| 3------------------ 3---- 3-- 4|
E|---------------- 3--------------|--------------------------------|
http://classicalguitartablature.blogspot.com/
E|------ 3------ 3----------------|--------------------------------|
B|-- 5-- 5-- 5-- 3-- 5---- 3---- 1|-------- 1---- 1-- 1---- 1------|
G|-- 5------ 5-- 4-- 4------ 5-- 0|-------- 0---- 0-- 0-- 0--------|
D|-- 3------ 3------ 3------------|-------- 2---- 2-- 2---- 2------|
A| 5------------------------------| 3------------------ 3---- 3-- 5|
E|---------------- 3--------------|--------------------------------|
http://classicalguitartablature.blogspot.com/
E|-------- 3---- 3------ 3--------|-------------- 0----------------|
B|------ 5 5 5-- 3-- 5-- 3-- 5-- 3|-- 1---- 1 3-- 1-- 3 1----------|
G|------ 5-- 5-- 4-- 4-- 4-- 4-- 0|-- 0---- 0 0-- 0-- 0-------- 2 0|
D|-- 3------ 3------ 3------ 3-- 2|-- 2-- 2-- 2------------ 2------|
A|--------------------------------| 3-------------- 3--------------|
E|---------------- 3--------------|--------------------------------|
http://classicalguitartablature.blogspot.com/
E|--------------------------------|-------------------------- 0-- 5|
B|---------- 5-- 3-- 1---- 1---- 1|---------------- 1------------ 8|
G|-- 5---- 7 5-- 2-- 2------ 2-- 0|------ 0-- 0---- 0------------ 5|
D| 7------------ 3-- 3------------|------ 2-------- 2--------------|
A| 5------------------------------| 3---------- 3-- 3--------------|
E|---------------- 3--------------|--------------------------------|
http://classicalguitartablature.blogspot.com/
E|-------------- 5-- 3-- 3------ 5|-- 3---- 3---- 5-------- 5---- 5|
B|-- 8---- 8 5-- 3-- 3---- 3 5-- 5|-- 5------ 5-------------- 5-- 8|
G|-- 5---- 5 5-- 4-- 4---- 4 4-- 4|-- 4-- 4------------ 4-------- 5|
D|-- 7---- 7---------------- 3----|--------------------------------|
A| 5------------------------------| 3-------------- 3--------------|
E|---------------- 3--------------|--------------------------------|
http://classicalguitartablature.blogspot.com/
E|-------------- 5-- 3-- 3------ 5|-- 3---- 3---- 5-------- 5------|
B|-- 8---- 8 5-- 3-- 3---- 3 5-- 5|-- 5------ 5-------------- 5-- 6|
G|-- 5---- 5 5-- 4-- 4---- 4 4-- 4|-- 4-- 4------------ 4-------- 5|
D|-- 7---- 7---------------- 3----|------------------------------ 3|
A| 5------------------------------| 3-------------- 3--------------|
E|---------------- 3--------------|--------------------------------|
http://classicalguitartablature.blogspot.com/
E|--------------------------------|---------------------- 0-- 3----|
B|-- 5-- 3---- 3------ 5-- 3---- 1|-------- 1-- 1-- 1---- 1------ 6|
G|-- 5------ 5 4------ 4---- 5-- 0|-------- 0-- 0-- 0------------ 5|
D|-- 3-------- 3------ 3-------- 2|-------- 2-- 2-- 2------------ 3|
A| 5------------------------------| 3---------------- 3------------|
E|---------------- 3--------------|--------------------------------|
http://classicalguitartablature.blogspot.com/
E|--------------------------------|-------------------- 0-- 0-- 1--|
B|-- 5-- 3---- 3------ 5-- 3---- 1|-------------------- 1-- 1-- 1--|
G|-- 5------ 5 4------ 4---- 5-- 0|--------------------------------|
D|-- 3-------- 3------ 3-------- 2|--------------------------------|
A| 5------------------------------| 3-- 3-- 3-- 3-- 3--------------|
E|---------------- 3--------------|--------------------------------|
http://classicalguitartablature.blogspot.com/
E| 3------------------------------|-------------- 0-------- 0 1-- 3|
B| 6---- 6-- 6-- 5------ 5-- 5-- 1|------ 1-- 1-- 1---- 3-- 1 1-- 6|
G| 5---- 5-- 5-- 4------ 4-- 4-- 0|------ 0-- 0-- 0---- 0-- 0---- 5|
D|------ 3-- 3-- 3---------- 3-- 2|------ 2-- 2-------- 2----------|
A| 5------------------------------| 3-------- 3--------------------|
E|---------------- 3-------- 3----|--------------------------------|
http://classicalguitartablature.blogspot.com/
E|------ 3-- 3--------------------|---------------- 0---- 0-- 1-- 3|
B|------ 6-- 6-- 5------ 5-- 5-- 1|------ 1-- 1---- 1 3-- 1-- 0-- 6|
G|------ 5-- 5 4-------- 4-- 4-- 0|------ 0-- 0---- 0 3-- 0------ 5|
D|-------------- 3------ 3-- 3-- 2|------ 2-- 2------ 2------------|
A| 5-------- 5--------------------| 3---------- 3------------------|
E|---------------- 3-------- 3----|--------------------------------|
http://classicalguitartablature.blogspot.com/
E|------ 3-- 3--------------------|-------- 0----------------------|
B|------ 6-- 6-- 5------ 5-- 5-- 1|-------- 1 3-- 3-- 1------------|
G|------ 5-- 5 4-------- 4-- 4-- 0|-------- 0 0-- 0-- 0---- 2 0----|
D|-------------- 3------ 3-- 3-- 2|---------- 2-- 2-- 2---------- 7|
A| 5-------- 5--------------------| 3-------------- 3--------------|
E|---------------- 3-------- 3----|--------------------------------|
http://classicalguitartablature.blogspot.com/
E|---------------- 3--------------|--------------------------------|
B|------------ 8-- 5 5-- 3------ 1|------------ 5---------------- 5|
G|-- 5---- 5------ 4 4------ 5-- 0|------------ 5---------------- 5|
D|------ 7---------- 3---------- 2|------------ 5---------------- 5|
A| 5------------------------------| 3-------- 5 7------------------|
E|---------------- 3--------------|-------------------------- 7 6 5|
http://classicalguitartablature.blogspot.com/
E|--------------------------------|--------------------------------|
B|--------------------------------|------------------------------ 1|
G|------------------------------ 2|---------- 2-- 4-------------- 0|
D|--------------------------------|---------- 3-- 5-------------- 2|
A|---------- 2 3---- 2 3---- 2----|-------------------------- 3-- 3|
E|-------------- 3------ 2------ 1|---------- 1-- 3---- 3 3 5-- 5--|
http://classicalguitartablature.blogspot.com/
E|--------------------------------|--------------------------------|
B|------------ 5---------------- 5|--------------------------------|
G|-------------- 5-------------- 5|--------------------------------|
D|-------------- 5-------------- 5|--------------------------------|
A|---------- 5 6 7----------------|---------- 2-- 3---- 2-- 3---- 2|
E|-------------------------- 7 6 5|---------------- 3-------- 2----|
http://classicalguitartablature.blogspot.com/
E|--------------------------------|--------------------------------|
B|------------------ 1-- 2-- 3----|-------- 3------------ 1--------|
G|------------------ 2-- 3-- 4----|-------- 4---------- 0----------|
D|------------------ 3-- 4-- 5----|-------- 5---------- 2----------|
A|-- 3----------------------------|-------------------- 3----------|
E|------ 1---------- 1-- 2-- 3----|-------- 3----------------------|
http://classicalguitartablature.blogspot.com/
0 com

Thunderball - James Bond (BASIC)

Tom Jones James Bond's tune fingerstyle chord melody guitar BASIC arrangement played in the key of Bm.

Thunderball-James Bond-Tom Jones-BASIC Arrangement played in the key of Bm.
http://classicalguitartablature.blogspot.com/
E|---------------- 5-- 4----------| 3------ 3-- 2------------------|
B| 2---------- 3-- 3-- 3------ 3--| 4---- 4---- 2-------------- 2--|
G| 4------ 4------ 4-- 4-- 4------|-- 4-------- 3---------- 3------|
D|---- 4--------------------------|-------------------- 2----------|
A| 2------------------------------| 2------------------------------|
E|---------------- 2--------------|------------ 2------------------|
http://classicalguitartablature.blogspot.com/
E|---------------- 5-- 4----------| 3------ 3-- 2------------------|
B| 2---------- 3-- 3-- 3------ 3--| 4---- 4---- 2-------------- 2--|
G| 4------ 4------ 4-- 4-- 4------|-- 4-------- 3---------- 3------|
D|---- 4--------------------------|-------------------- 2----------|
A| 2------------------------------| 2------------------------------|
E|---------------- 2--------------|------------ 2------------------|
http://classicalguitartablature.blogspot.com/
http://classicalguitartablature.blogspot.com/
E|--------------------------------|--------------------------------|
B|-------- 3------------ 2---- 3--|---- 2--------------------------|
G|---- 4------------ 4-------- 0--|---- 0------ 0------ 2------ 4--|
D| 4---------- 4-------------- 2--|-------- 2-------------- 4------|
A| 2------------------------------|--------------------------------|
E|---------------- 2------------ 0|---------------- 2--------------|
http://classicalguitartablature.blogspot.com/
E|--------------------------------| 5-- 4--------------------------|
B|-------------------------- 3----| 3-- 3------ 3---------- 3------|
G|------ 4-------------- 4--------| 4-- 4-- 4---------------- 4----|
D|---- 4------ 4------ 4----------|-------------------- 4----------|
A| 2------------------------------| 2------------------------------|
E|---------------- 2--------------|---------------- 2--------------|
http://classicalguitartablature.blogspot.com/
E|---------------------------- 3--| 2------------------------------|
B| 1------------------------------| 2-- 5-- 3------------------ 2--|
G| 0------ 0-------------- 0------| 3-- 3-- 3-------------- 3------|
D|---- 2------ 2------ 2----------|---- 2------ 2------ 2----------|
A| 3------------------------------|---------------- 4--------------|
E|---------------- 3--------------| 2------------------------------|
http://classicalguitartablature.blogspot.com/
E|--------------------------------| 5-- 4--------------------------|
B| 3 3------------------------ 3--| 3-- 3------ 3-------------- 3--|
G| 2------ 2-------------- 4------| 4------ 4-------------- 4------|
D|---- 4------ 4------ 4----------|-------------------- 4----------|
A| 2------------------------------| 2------------------------------|
E|---------------- 2--------------|---------------- 2--------------|
http://classicalguitartablature.blogspot.com/
E| 0---------------- 2------ 3----| 2------------------------------|
B| 0------ 0-------- 0------------| 2-- 5-------- 5---- 3------ 2--|
G|------ 0------------------------| 3-- 3------ 3------ 3----------|
D|---- 2------ 2---------- 2------|-------- 2---------- 2-- 2------|
A|-------------- 2----------------|---------------- 4--------------|
E| 0------------------------------| 2------------------------------|
http://classicalguitartablature.blogspot.com/
E|--------------------------------|--------------------------------|
B|--------------------------------|--------------------------------|
G|--------------------------------|--------------------------------|
D| 4------------------------------|-------------------- 4---- 4----|
A|-------- 6-------------- 6------|------ 6------------------------|
E| 6---------- 6-- 7-------- 7----| 8-------- 8-- 7----------------|
http://classicalguitartablature.blogspot.com/
E|--------------------------------|--------------------------------|
B|-------- 0---------- 0------ 3--| 2------ 2---------- 2----------|
G| 0---- 0------------ 0----------| 4---- 4-------------------- 4--|
D|---- 2------ 2---------- 2------|---- 3------ 3---------- 3------|
A|---------------- 2--------------| 4------------------------------|
E| 0------------------------------|---------------- 4--------------|
http://classicalguitartablature.blogspot.com/
E|------------------ 2------------|--------------------------------|
B| 2------ 2----------------------|--------------------------------|
G|------ 3-------------------- 3--| 2------ 2-- 0---------- 0------|
D|---- 2---- 2---------- 2--------|---- 2-------------- 2------ 2--|
A|---------------- 4--------------|---------------- 4--------------|
E| 2------------------------------| 2------------------------------|
http://classicalguitartablature.blogspot.com/
E|--------------------------------|--------------------------------|
B|-------- 3------------ 2---- 3--|---- 2--------------------------|
G|---- 4------------ 4-------- 0--|---- 0------ 0------ 2------ 4--|
D| 4---------- 4-------------- 2--|-------- 2-------------- 4------|
A| 2------------------------------|--------------------------------|
E|---------------- 2------------ 0|---------------- 2--------------|
http://classicalguitartablature.blogspot.com/
E|--------------------------------| 5-- 4--------------------------|
B|-------------------------- 3----| 3-- 3------ 3---------- 3------|
G|------ 4-------------- 4--------| 4-- 4-- 4---------------- 4----|
D|---- 4------ 4------ 4----------|-------------------- 4----------|
A| 2------------------------------| 2------------------------------|
E|---------------- 2--------------|---------------- 2--------------|
http://classicalguitartablature.blogspot.com/
E|---------------------------- 3--| 2------------------------------|
B| 1------------------------------| 2-- 5-- 3------------------ 2--|
G| 0------ 0-------------- 0------| 3-- 3-- 3-------------- 3------|
D|---- 2------ 2------ 2----------|---- 2------ 2------ 2----------|
A| 3------------------------------|---------------- 4--------------|
E|---------------- 3--------------| 2------------------------------|
http://classicalguitartablature.blogspot.com/
E|--------------------------------| 5-- 4--------------------------|
B| 3 3------------------------ 3--| 3-- 3------ 3-------------- 3--|
G| 2------ 2-------------- 4------| 4------ 4-------------- 4------|
D|---- 4------ 4------ 4----------|-------------------- 4----------|
A| 2------------------------------| 2------------------------------|
E|---------------- 2--------------|---------------- 2--------------|
http://classicalguitartablature.blogspot.com/
E| 0---------------- 2------ 3----| 2------------------------------|
B| 0------ 0-------- 0------------| 2-- 5-------- 5---- 3------ 2--|
G|------ 0------------------------| 3-- 3------ 3------ 3----------|
D|---- 2------ 2---------- 2------|-------- 2---------- 2-- 2------|
A|-------------- 2----------------|---------------- 4--------------|
E| 0------------------------------| 2------------------------------|
http://classicalguitartablature.blogspot.com/
E|--------------------------------|--------------------------------|
B|--------------------------------|--------------------------------|
G|--------------------------------|--------------------------------|
D| 4------------------------------|-------------------- 4---- 4----|
A|-------- 6-------------- 6------|------ 6------------------------|
E| 6---------- 6-- 7-------- 7----| 8-------- 8-- 7----------------|
http://classicalguitartablature.blogspot.com/
E|--------------------------------|--------------------------------|
B|-------- 0---------- 0------ 3--| 2---- 2---------- 2------------|
G| 0---- 0------------ 0----------| 3---- 3-------------------- 4--|
D|---- 2------ 2---------- 2------|---- 2---- 2------------ 2------|
A|---------------- 2--------------|-------------- 4----------------|
E| 0------------------------------| 2------------------------------|
http://classicalguitartablature.blogspot.com/
E|-------------------- 2----------|--------------------------------|
B| 2------------------------------|-------- 3-------------- 3------|
G|---- 4------ 4-------------- 3--| 2---------- 2------ 2------ 2--|
D|-------- 4-------------- 4------|---- 4---------- 4--------------|
A| 2------------------------------| 2------------------------------|
E|---------------- 2--------------|---------------- 2--------------|
http://classicalguitartablature.blogspot.com/
E| 0------------------------------| 5------------------------------|
B| 0-------- 0---------- 0--------| 5-- 8------ 7-- 5------ 5------|
G|-------- 0------------------ 0--| 5-- 5---------- 5---------- 7--|
D|---- 2-------------- 2----------|-------- 7---------- 7----------|
A|---------------- 2--------------| 0------------------------------|
E| 0------------------------------|---------------- 0--------------|
http://classicalguitartablature.blogspot.com/
E|--------------------------------| 0------------------------------|
B|-------- 3------------ 3--------| 0---------- 0---------- 0------|
G| 4-------------------------- 4--|-------- 0-- 0-------------- 0--|
D|---- 4------ 4------ 4----------|---- 0-------------- 0----------|
A| 2------------------------------|--------------------------------|
E|---------------- 2--------------| 3-------------- 0--------------|
http://classicalguitartablature.blogspot.com/
E|--------------------------------|------------ 3 2----------------|
B|-------- 0---------- 0----------|-------- 2---------------- 5----|
G| 2---- 2-------------------- 0--| 2------------------------------|
D|---- 2------ 2---------- 2------|---- 2-------------- 2----------|
A| 0------------------------------|--------------------------------|
E|---------------- 0--------------| 2-------------- 2--------------|
http://classicalguitartablature.blogspot.com/
E| 2------------------------------|--------------------------------|
B| 3------ 3------------------ 3--|------------ 0------------ 2----|
G|---- 4---------------- 4--------|-------- 0------------ 3--------|
D|---- 4------------ 4------------|---- 2-------------- 2----------|
A| 2---------- 2------------------|--------------------------------|
E|---------------- 2--------------| 0-------------- 2--------------|
http://classicalguitartablature.blogspot.com/
E|--------------------------------|--------------------------------|
B|-------- 3------------ 2---- 3--|---- 2--------------------------|
G|---- 4------------ 4-------- 0--|---- 0------ 0------ 2------ 4--|
D| 4---------- 4-------------- 2--|-------- 2-------------- 4------|
A| 2------------------------------|--------------------------------|
E|---------------- 2------------ 0|---------------- 2--------------|
http://classicalguitartablature.blogspot.com/
E|--------------------------------| 5-- 4--------------------------|
B|-------------------------- 3----| 3-- 3------ 3---------- 3------|
G|------ 4-------------- 4--------| 4-- 4-- 4---------------- 4----|
D|---- 4------ 4------ 4----------|-------------------- 4----------|
A| 2------------------------------| 2------------------------------|
E|---------------- 2--------------|---------------- 2--------------|
http://classicalguitartablature.blogspot.com/
E|---------------------------- 3--| 2------------------------------|
B| 1------------------------------| 2-- 5-- 3------------------ 2--|
G| 0------ 0-------------- 0------| 3-- 3-- 3-------------- 3------|
D|---- 2------ 2------ 2----------|---- 2------ 2------ 2----------|
A| 3------------------------------|---------------- 4--------------|
E|---------------- 3--------------| 2------------------------------|
http://classicalguitartablature.blogspot.com/
E|--------------------------------| 5-- 4--------------------------|
B| 3 3------------------------ 3--| 3-- 3------ 3-------------- 3--|
G| 2------ 2-------------- 4------| 4------ 4-------------- 4------|
D|---- 4------ 4------ 4----------|-------------------- 4----------|
A| 2------------------------------| 2------------------------------|
E|---------------- 2--------------|---------------- 2--------------|
http://classicalguitartablature.blogspot.com/
E| 0---------------- 2------ 3----| 2------------------------------|
B| 0------ 0-------- 0------------| 2-- 5-------- 5---- 3------ 2--|
G|------ 0------------------------| 3-- 3------ 3------ 3----------|
D|---- 2------ 2---------- 2------|-------- 2---------- 2-- 2------|
A|-------------- 2----------------|---------------- 4--------------|
E| 0------------------------------| 2------------------------------|
http://classicalguitartablature.blogspot.com/
E|--------------------------------|--------------------------------|
B|--------------------------------|--------------------------------|
G|--------------------------------|--------------------------------|
D| 4------------------------------|-------------------- 4---- 4----|
A|-------- 6-------------- 6------|------ 6------------------------|
E| 6---------- 6-- 7-------- 7----| 8-------- 8-- 7----------------|
http://classicalguitartablature.blogspot.com/
E|--------------------------------|---------------- 2--------------|
B|-------- 0---------- 0------ 3--| 2------ 2------------------ 2--|
G| 0---- 0------------ 0----------| 3---- 3---------------- 3------|
D|---- 2------ 2---------- 2------|---- 2------ 2------ 2----------|
A|---------------- 2--------------|---------------- 4--------------|
E| 0------------------------------| 2------------------------------|
http://classicalguitartablature.blogspot.com/
E| 7------------------------------|------------ 2------------------|
B|---- 7----------10-- 9-------- 8|------ 8---- 2------------------|
G|------ 7---- 7------ 7------ 7 8|------ 8---- 3------ 3----------|
D|-------- 9------ 9-- 9-- 9------|-- 9------------ 2--------------|
A|---------------- 9--------------|--------------------------------|
E| 7------------------------------| 7---------- 2---------- 2 2 2--|
http://classicalguitartablature.blogspot.com/
E|---------------- 5-- 4----------|------------ 2------------------|
B|-- 3-------- 3------ 3---- 3-- 8|------ 8---- 2------------------|
G|-------- 4---------- 4-- 4-- 4 8|------ 8---- 3------ 3----------|
D|---- 4--------------------------|-- 9------------ 2--------------|
A| 2------------------------------|--------------------------------|
E|---------------- 2--------------| 7---------- 2---------- 2 2 2--|
http://classicalguitartablature.blogspot.com/
E|---------------- 5-- 4----------|------------ 2------------------|
B|-- 3-------- 3------ 3---- 3-- 8|------ 8---- 2------------------|
G|-------- 4---------- 4-- 4-- 4 8|------ 8---- 3------ 3-------- 7|
D|---- 4--------------------------|-- 9------------ 2--------------|
A| 2------------------------------|--------------------------------|
E|---------------- 2--------------| 7---------- 2---------- 2 2 2 7|
http://classicalguitartablature.blogspot.com/
E| 9------------------------------|--------------------------------|
B| 9----------------11----10------|--------------------------------|
G|---- 7-------- 7----------------|-- 7----11----------------------|
D|-------- 9----------------------|--------------------------------|
A|--------------------------------|--------------------------------|
E|--------------------------------|--------------------------------|
http://classicalguitartablature.blogspot.com/
0 com

Up Where We Belong (BASIC)

Joe Cocker And Jeniffer Jones' tune fingerstyle chord melody guitar BASIC arrangement played in the key of C.

Up Where We Belong-Joe Cocker And Jennifer Jones-BASIC Arrangement played in the key of C.
http://classicalguitartablature.blogspot.com/
E|-------------------- 5----------|---------- 8 7 8---- 0------ 0--|
B| 5---- 5---- 6-- 8---------- 8--| 6---- 6-------- 6------------ 6|
G| 5-------------- 5--------------| 5-------------- 7------ 7------|
D|---- 5---- 5-------- 5---- 5----|---- 7---------- 6--------------|
A|--------------------------------|--------------------------------|
E| 8-------------- 8--------------| 8-------------- 8--------------|
http://classicalguitartablature.blogspot.com/
E|--------------------------------|---------- 8 7 8----------------|
B| 5---------- 6-- 8---- 6---- 5--| 6-------------- 9-- 8----------|
G| 5---- 5-------- 5---- 5---- 5--| 5---- 5--------10------10------|
D|---- 5---------- 5---- 5---- 5--|---- 7----------10--------------|
A|--------------------------------|--------------------------------|
E| 8-------------- 8--------------| 8-------------- 8--------------|
http://classicalguitartablature.blogspot.com/
http://classicalguitartablature.blogspot.com/
E| 3-------------- 3-- 1------ 0--|-- 0----------------------------|
B| 1-------- 1---- 0-- 0---- 0-- 3|------ 1-------- 1---- 1--------|
G| 0---- 0---- 0-- 0-- 0-------- 2|---------- 0---- 1---------- 0 0|
D|---- 2-------- 2-------------- 3|------------ 3------ 3----------|
A| 3-------------- 3--------------| 3-------------- 3--------------|
E|--------------------------------|--------------------------------|
http://classicalguitartablature.blogspot.com/
E| 0---- 0---- 1-- 3---- 1---- 0--|--------------------------------|
B| 1---- 1---- 1-- 0---- 0---- 0--| 1-------- 1---------------- 1--|
G| 0---- 0---- 0-- 0---- 0---- 0--| 2---- 2---- 2-------- 1--------|
D|--------------------------------| 3-- 3-------- 3---- 3---- 3----|
A| 3-------------- 3--------------| 3-------------- 3--------------|
E|--------------------------------|--------------------------------|
http://classicalguitartablature.blogspot.com/
E| 3 3 3-------------------- 1 0 1|-- 0----------------------------|
B| 1 1 1---------- 0------------ 1|-- 1 1-------------------- 1----|
G| 0 0 0---------- 0---- 0--------| 2 2 2---- 2---------- 1---- 0--|
D|-------- 2-- 3-- 0-- 0----------|---- 3 3---- 3------ 3----------|
A| 3-------------- 3--------------| 3------------ 3----------------|
E|--------------------------------|--------------------------------|
http://classicalguitartablature.blogspot.com/
E| 0---- 0-------- 3---- 1-- 0----|--------------------------------|
B| 1---- 1------------------------| 1-------- 1------ 0-- 1-- 0 1--|
G| 0---- 0---- 0------------------| 2---- 2---- 2-- 2------ 0------|
D|--------------------------------|---- 3-------- 3----------------|
A| 3---------------- 3 2 1--------|--------------------------------|
E|--------------------------------| 1-------------- 1------ 0------|
http://classicalguitartablature.blogspot.com/
E|--------------------------------|------------------ 3------------|
B| 3-------- 3---------------- 5--| 3-------- 3-- 0 1---------- 1--|
G| 5---- 5------------ 5-------- 5| 0---- 0---- 0------------ 0----|
D|---- 3------ 3-- 2 3-- 3--------|---- 0-------- 0-------- 0------|
A| 5------------------------------|--------------------------------|
E|--------------------------------| 3------------------------------|
http://classicalguitartablature.blogspot.com/
E| 0-- 3---------- 0-------- 0----|---------------------------- 0--|
B| 1------------ 1------ 3 3---- 1|-------- 1------------------ 3--|
G| 0---------- 0------ 0-------- 2|------ 2---- 2-------- 2--------|
D|-- 2---- 2-------- 2---------- 3|---- 3-------- 3---- 3-- 3------|
A| 3------------------------------|---------------- 0--------------|
E|---------------- 0--------------| 1------------------------------|
http://classicalguitartablature.blogspot.com/
E|--------------------------------|--------------------------------|
B| 6-------- 6-- 5 3-------- 5----| 3-------- 3-- 1---- 1------ 3--|
G| 3---- 3---- 3---- 5---------- 5| 2---- 2-- 2-------- 2---- 0----|
D|---- 3-------- 3-------- 3------|---- 3------ 3---- 3------ 0----|
A|--------------------------------|---------------- 0---- 2--------|
E| 6-------------- 6--------------| 3------------------------------|
http://classicalguitartablature.blogspot.com/
E|-------------------- 0 0--------|--------------------------------|
B|------------ 1-- 1--------------|-------- 1---------- 1------ 1--|
G|---- 0-- 0-- 0-------------- 0 2|------ 2-- 2------ 2------ 2----|
D|-- 2-- 2-- 2------ 2-- 2 2------|---- 3------ 3---- 3---- 2------|
A| 3------------------------------|--------------------------------|
E|---------------- 0--------------| 1-------------- 1------ 0------|
http://classicalguitartablature.blogspot.com/
E|--------------------------------|------ 0------------------------|
B| 3------ 5-- 1-------- 1---- 1 3|------------ 1-------------- 1--|
G| 5-- 5-------------- 0---- 2----| 3-- 3------ 2------ 2---- 2----|
D|-- 3-- 3---------- 2------------|-- 3-------- 3------ 3---- 3----|
A| 5------------------------------| 1------------------------------|
E|---------------- 0--------------|-------------- 1-------- 3------|
http://classicalguitartablature.blogspot.com/
E|-------------------- 0 0--------|--------------------------------|
B|------------ 1-- 1--------------|-------- 1---------- 1------ 1--|
G|---- 0-- 0-- 0-------------- 0 2|------ 2-- 2------ 2------ 2----|
D|-- 2-- 2-- 2------ 2-- 2 2------|---- 3------ 3---- 3---- 2------|
A| 3------------------------------|--------------------------------|
E|---------------- 0--------------| 1-------------- 1------ 0------|
http://classicalguitartablature.blogspot.com/
E|--------------------------------| 0-------- 0--------------------|
B| 3------ 5-- 1-------- 1---- 1--| 3-- 3-- 1-- 3---------------- 0|
G| 5-- 5-------------- 0---- 2-- 2|---- 2-- 2---------- 0------ 0--|
D|-- 3-- 3---------- 2------------|---- 0-- 0---------- 0-- 0------|
A| 5------------------------------|--------------------------------|
E|---------------- 0------------ 2|---------------- 3------ 1------|
http://classicalguitartablature.blogspot.com/
E|--------------------------------|--------------------------------|
B| 4---------- 4 3----------------| 2-- 2-- 4-- 1------------------|
G| 3---- 3---------- 5 3---- 3----| 1-- 1------ 1---- 3------ 1-- 4|
D|---- 5-- 5-------------- 3---- 3|---- 3------ 1---------- 1-- 1 4|
A| 6-------------- 5------------ 4|---------------- 3------------ 2|
E|--------------------------------|--------------------------------|
http://classicalguitartablature.blogspot.com/
E|--------------------------------|---------------- 1--------------|
B|------ 2------------------------|-------------- 4-- 4-------- 4--|
G|-- 4------ 3------ 1------------| 1---- 1------ 1-------- 1------|
D|------------ 4------ 4-------- 1|---- 1------ 1-------- 1--------|
A|---------------- 1--------------|--------------------------------|
E|------------------------------ 4|-------------- 4----------------|
http://classicalguitartablature.blogspot.com/
E|-------------------- 1-- 1------|--------------------------------|
B|------------ 2-- 2--------------|-------- 2---------------- 2-- 4|
G|---- 1-- 1------ 1---------- 1--| 3---- 3-- 3------------ 3---- 6|
D|-- 3-- 3-- 3-- 3-- 3-- 3-- 3----|---- 4------ 4------ 4-- 3------|
A| 4------------------------------|------------------------------ 6|
E|---------------- 1--------------| 2-------------- 2------ 1------|
http://classicalguitartablature.blogspot.com/
E|--------------------------------|------ 1------------------------|
B|------ 6---- 2---------- 2-- 2--| 4-- 4---- 2--------------------|
G|---- 6------ 1-------- 1-- 3----|-- 4-------- 3-------- 3---- 3--|
D|-- 4-------- 3------ 3----------|------------ 4------ 4------ 4--|
A|---------- 1--------------------| 2------------------------------|
E|---------------- 1--------------|---------------- 2------ 4------|
http://classicalguitartablature.blogspot.com/
E|-------------------- 1-- 1------|--------------------------------|
B|------------ 2-- 2--------------|-------- 2---------------- 2-- 4|
G|---- 1-- 1------ 1---------- 1--| 3---- 3-- 3------------ 3---- 6|
D|-- 3-- 3-- 3-- 3-- 3-- 3-- 3----|---- 4------ 4------ 4-- 3------|
A| 4------------------------------|------------------------------ 6|
E|---------------- 1--------------| 2-------------- 2------ 1------|
http://classicalguitartablature.blogspot.com/
E|--------------------------------|--------------------------------|
B|------ 6---- 2---------- 2-- 2--| 6-- 4------ 6------------------|
G|---- 6------ 1-------- 1-- 3----| 5------ 6-- 6-------- 6 6------|
D|-- 4-------- 3------ 3----------| 4---------- 4------ 4-- 4---- 4|
A|--------------------------------|--------------------------------|
E|---------------- 1--------------| 5-------------- 6------ 5---- 4|
http://classicalguitartablature.blogspot.com/
E|---------------------- 1--------|--------------------------------|
B| 2------ 1-------- 1------------|--------------------------------|
G| 3------ 1------ 1--------------|--------------------------------|
D|-------- 1------ 3--------------|--------------------------------|
A|------ 3-------- 4--------------|--------------------------------|
E|--------------------------------|--------------------------------|
http://classicalguitartablature.blogspot.com/
0 com

Farmville Theme Song (BASIC)

Popular Facebook Game Farmville's Theme Song fingerstyle chord melody guitar BASIC arrangement played in the key of E.

Farmville Theme Song-BASIC Arrangement played in the key of E.
http://classicalguitartablature.blogspot.com/
E|--------------------------------|--------------------------------|
B|------------ 0-------------- 2--|------------ 7------------------|
G|-------- 2-------------- 2------|-------- 4---------- 4----------|
D|---- 1-------------- 2----------|---- 7------------------ 7------|
A| 2-------------- 4--------------| 6------------------------------|
E|--------------------------------|--------------------------------|
http://classicalguitartablature.blogspot.com/
E|-------- 4------ 4------ 7---- 4|--------------------------------|
B|-------- 5------ 4------ 4------| 5---------- 5------ 9-- 7-- 5--|
G|------------------ 5------------|-------- 4---------- 7-- 7-- 7--|
D|---- 6------ 6------ 4----------|---- 6-------------- 7-- 6-- 6--|
A|--------------------------------| 4------------------------------|
E| 0-------------- 4--------------|---------------- 7------ 6------|
http://classicalguitartablature.blogspot.com/
http://classicalguitartablature.blogspot.com/
E| 2-------------- 4---------- 0--|--------------------------------|
B| 2---- 5---- 2-- 2------ 5------|------------ 0-- 5--------------|
G| 4---- 3---- 3-- 2--------------|-------- 1-------------- 4-- 5--|
D|-------- 2-- 2------ 2----------|---- 2---------- 6-- 6----------|
A|---------------- 2--------------|--------------------------------|
E| 2------------------------------| 0-------------- 4--------------|
http://classicalguitartablature.blogspot.com/
E|--------------------------------|--------------------------------|
B|---- 5-------- 7 8 7 5----------|-------------------- 2----------|
G| 6------ 6---- 5-------- 5-- 4--|-------- 4---------- 4------ 2--|
D| 7------------ 7----------------|---- 6------ 6---------- 3------|
A| 0-------------- 0--------------|---------------- 4--------------|
E|--------------------------------| 4------------------------------|
http://classicalguitartablature.blogspot.com/
E|------------ 4------------------|----------------11--11-- 9-- 7--|
B|---- 2-- 5------------ 5---- 8--|------------ 8------------------|
G| 3------------------ 3------ 8--|-------- 8----------------------|
D| 2-------------------------- 9--|---- 9--------------------------|
A|---------------- 4--------------|10------------------------------|
E| 2------------------------------| 7------------------------------|
http://classicalguitartablature.blogspot.com/
E|12---------- 7------------------|--------------------------------|
B| 9---------- 7-------------- 7--|------------ 5------ 0 1---- 2--|
G|-------- 9-- 5---------- 5------|-------- 4---------- 1 1---- 3--|
D|---- 9-------------- 4----------|---- 6-------------- 0-- 0-- 2--|
A|--------------------------------| 4------------------------------|
E| 0-------------- 4--------------|---------------- 0--------------|
http://classicalguitartablature.blogspot.com/
E|------------ 2 3 2---------- 0--|---- 0---------- 9-- 7----------|
B|---- 5-- 2-- 2------ 5 2---- 0--|-------- 4-- 3-- 7-- 7----------|
G|---- 3 3---- 2------ 2 2------ 1|---------------- 7---------- 7--|
D|---- 2-- 2---------- 2 2--------|------------------------ 7------|
A|---------------- 2--------------|--------------------------------|
E| 2------------------------------| 0-------------- 7--------------|
http://classicalguitartablature.blogspot.com/
E|---- 4---------- 8-- 5----------|---- 7-- 9----------------------|
B|---- 5-- 7------ 5---- 7 7-- 8--| 9------------ 7-------- 6------|
G|---- 6-- 6------ 5------ 5-- 5--| 7------------ 4-------- 4------|
D|------------------------ 7-- 7--| 9------------------ 6----------|
A| 0-------------- 0--------------|---------------- 4--------------|
E|--------------------------------| 0------------------------------|
http://classicalguitartablature.blogspot.com/
E| 2-- 4-- 2----------------------|-------- 4------ 4------ 7---- 4|
B| 2-- 2-- 2------ 2--------------|-------- 5------ 4------ 4------|
G| 3-- 3-- 3------ 2--------------|------------------ 5------------|
D|---------------- 2--------------|---- 6------ 6------ 4----------|
A|---------------- 2--------------|--------------------------------|
E| 2------------------------------| 0-------------- 4--------------|
http://classicalguitartablature.blogspot.com/
E|--------------------------------| 2-------------- 4---------- 0--|
B| 5---------- 5------ 9-- 7-- 5--| 2---- 5---- 2-- 2------ 5------|
G|-------- 4---------- 7-- 7-- 7--| 4---- 3---- 3-- 2--------------|
D|---- 6-------------- 7-- 6-- 6--|-------- 2-- 2------ 2----------|
A| 4------------------------------|---------------- 2--------------|
E|---------------- 7------ 6------| 2------------------------------|
http://classicalguitartablature.blogspot.com/
E|--------------------------------|--------------------------------|
B|------------ 0-- 5--------------|---- 5-------- 7 8 7 5----------|
G|-------- 1-------------- 4-- 5--| 6------ 6---- 5-------- 5-- 4--|
D|---- 2---------- 6-- 6----------| 7------------ 7----------------|
A|--------------------------------| 0-------------- 0--------------|
E| 0-------------- 4--------------|--------------------------------|
http://classicalguitartablature.blogspot.com/
E|--------------------------------|------------ 4------------------|
B|-------------------- 2----------|---- 2-- 5------------ 5---- 8--|
G|-------- 4---------- 4------ 2--| 3------------------ 3------ 8--|
D|---- 6------ 6---------- 3------| 2-------------------------- 9--|
A|---------------- 4--------------|---------------- 4--------------|
E| 4------------------------------| 2------------------------------|
http://classicalguitartablature.blogspot.com/
E|----------------11--11-- 9-- 7--|12---------- 7------------------|
B|------------ 8------------------| 9---------- 7-------------- 7--|
G|-------- 8----------------------|-------- 9-- 5---------- 5------|
D|---- 9--------------------------|---- 9-------------- 4----------|
A|10------------------------------|--------------------------------|
E| 7------------------------------| 0-------------- 4--------------|
http://classicalguitartablature.blogspot.com/
E|--------------------------------|------------ 2 3 2---------- 0--|
B|------------ 5------ 0 1---- 2--|---- 5-- 2-- 2------ 5 2---- 0--|
G|-------- 4---------- 1 1---- 3--|---- 3 3---- 2------ 2 2------ 1|
D|---- 6-------------- 0-- 0-- 2--|---- 2-- 2---------- 2 2--------|
A| 4------------------------------|---------------- 2--------------|
E|---------------- 0--------------| 2------------------------------|
http://classicalguitartablature.blogspot.com/
E|---- 0---------- 9-- 7----------|---- 4---------- 8-- 5----------|
B|-------- 4-- 3-- 7-- 7----------|---- 5-- 7------ 5---- 7 7-- 8--|
G|---------------- 7---------- 7--|---- 6-- 6------ 5------ 5-- 5--|
D|------------------------ 7------|------------------------ 7-- 7--|
A|--------------------------------| 0-------------- 0--------------|
E| 0-------------- 7--------------|--------------------------------|
http://classicalguitartablature.blogspot.com/
E|---- 7-- 9----------------------| 2-- 4-- 2----------------------|
B| 9------------ 7-------- 6------| 2-- 2-- 2------ 2--------------|
G| 7------------ 4-------- 4------| 3-- 3-- 3------ 2--------------|
D| 9------------------ 6----------|---------------- 2--------------|
A|---------------- 4--------------|---------------- 2--------------|
E| 0------------------------------| 2------------------------------|
http://classicalguitartablature.blogspot.com/
E|--------------------------------|--------------------------------|
B|-------- 5-- 5---------- 5------|--------------------------------|
G|-------- 7-- 7---------- 7------|--------------------------------|
D|-------- 6-- 6---------- 6------|--------------------------------|
A|--------------------------------|--------------------------------|
E|-------- 0-- 0-------- 0--------|--------------------------------|
http://classicalguitartablature.blogspot.com/
0 com

What's Going On (BASIC)

Marvin Gaye's tune fingerstyle chord melody guitar BASIC arrangement played in the key of E.

What's Going On-Marvin Gaye-BASIC Arrangement played in the key of E.
http://classicalguitartablature.blogspot.com/
E|--------------------------------|-------- 4----------------------|
B| 5------ 5-------- 5------------| 5------ 5-------- 5------------|
G| 4------ 4-- 4------------------| 4---- 4 4----------------------|
D| 6---------------- 6------------| 6---- 6 6-------- 6------------|
A|-------------------- 4------ 4--|-------------------- 4-- 7-- 4--|
E| 0------------ 7-------- 7------| 0------------ 7----------------|
http://classicalguitartablature.blogspot.com/
E|--------------------------------|-------- 4----------------------|
B| 5------ 5-------- 5------------| 5---- 5 5----------------------|
G| 4------ 4-------- 4------------| 4---- 4------------------------|
D| 6---- 6---- 6---- 6------------| 6---- 6------------------------|
A|-------------------- 4------ 4--|------ 7---------- 4-------- 4--|
E| 0------------ 7-------- 7------| 0------------ 4------ 8 7------|
http://classicalguitartablature.blogspot.com/
http://classicalguitartablature.blogspot.com/
E|--------------------------------|--------------------------------|
B| 2---- 0---- 0------ 2-- 2------|-------- 2-- 2---- 0-- 0 2------|
G| 1---- 1---- 1------ 1-- 1-- 1--|-------- 1-- 1---- 1-- 1 1------|
D| 2-- 2------ 2------ 2-------- 2|---- 2-- 2-- 2---- 2-- 2 2------|
A|--------------------------------|--------------------------------|
E| 0---------- 0------------------| 0------------------------------|
http://classicalguitartablature.blogspot.com/
E|--------------------------------|--------------------------------|
B|--------------------------------|------ 0------ 0-- 0------------|
G| 1---- 1---------------- 1------|------ 1------ 1-- 1------------|
D| 2---- 2---- 4------ 2------ 2--|------ 2------ 2-- 2------------|
A| 4-------- 0 4------ 4----------| 4---------------------- 2-- 4--|
E|--------------------------------|-------------------- 4----------|
http://classicalguitartablature.blogspot.com/
E| 0------------------------------|--------------------------------|
B| 0 0-- 2---- 0------ 2----------|------------ 2-- 2-- 0-- 0 2----|
G| 1-- 1 1-- 1-------- 1------ 1--|-------- 1-- 1-- 1-- 1-- 1 1----|
D|------ 2------------ 2-- 2---- 2|---- 2------ 2-- 2-- 2-- 2 2----|
A|--------------------------------|--------------------------------|
E| 0------------------------------| 0------------------------------|
http://classicalguitartablature.blogspot.com/
E|--------------------------------|--------------------------------|
B|--------------------------------|--------------------------------|
G| 1---- 1------------------------|------ 4---- 6------------------|
D| 2---- 2---- 4------ 2----------| 6---- 6---- 6------ 6------ 4--|
A| 4---------- 4------ 4------ 0--| 4---------- 4------------------|
E|--------------------------------|--------------------------------|
http://classicalguitartablature.blogspot.com/
E|--------------------------------|---------------------------- 2--|
B|--------------------------------|------ 2-------- 2---- 5---- 2--|
G|------ 1------------------------| 2---- 2---- 2-- 2---- 2---- 2--|
D| 2-- 4------ 2------------------| 2---- 2---- 2-- 2---- 2--------|
A|--------------------------------|--------------------------------|
E| 2------------------ 2---- 2----| 2---------- 2-- 2---- 2---- 2--|
http://classicalguitartablature.blogspot.com/
E| 4 4-- 4-- 2 2------------------|---- 2--------------------------|
B| 2 2-- 2-- 2 2------ 2----------|---- 2---- 2---------- 2--------|
G| 2 2-- 2-- 2 2------------ 2----|---- 2---- 2---------- 2--------|
D|---------------------------- 2--|---- 2---- 2---------- 2--------|
A| 2------------------------------| 2-------- 2------ 2---- 2------|
E|--------------------------------|--------------------------------|
http://classicalguitartablature.blogspot.com/
E|------------------------ 0------|--------------------------------|
B|-- 0-- 2---------------- 2------| 2---- 2---------- 2---- 2------|
G| 1---- 1---------- 1---- 1------| 2 4-- 2------ 2-- 2---- 2------|
D| 2------------ 2-- 2------------| 2------------ 2---- 2---- 2----|
A|--------------------------------| 2------------------ 2---- 2----|
E| 2------------------ 2---- 2----|--------------------------------|
http://classicalguitartablature.blogspot.com/
E|------------------------ 0------|-------------------------- 4----|
B|-- 0-- 2---------------- 2------| 2---- 2------------ 2---- 2----|
G| 1---- 1---------- 1---- 1------| 2 4-- 2------------ 2---- 2----|
D| 2------------ 2-- 2------------| 2------------ 2---- 2----------|
A|--------------------------------| 2------------------ 2---- 2----|
E| 2------------------ 2---- 2----|--------------------------------|
http://classicalguitartablature.blogspot.com/
E|-------------------------- 4----|------------------------ 4------|
B| 7 5-- 5------------ 5---- 5----| 7 5-- 5------ 5---- 5---- 5----|
G| 4 4-- 4------------ 4---- 4----| 4 4-- 4------ 4---- 4---- 4----|
D| 6 6-- 6------ 6---- 6----------| 6 6-- 6------ 6---- 6----------|
A|--------------------------------| 4------------------ 4---- 4----|
E| 0------------------ 0---- 0----|--------------------------------|
http://classicalguitartablature.blogspot.com/
E|-------------------------- 4----|-------------------------- 4----|
B| 7 5-- 5------------------ 5----| 7 5-- 5------------------ 5----|
G| 4 4-- 4-- 4 6------ 6---- 6----| 4 4-- 4-- 4 6-- 6-- 6---- 6----|
D| 6 6-- 6-- 6-------- 6----------| 6 6-- 6-- 6---- 6-- 6----------|
A|--------------------------------| 4------------------ 4---- 4----|
E| 0------------------ 0---- 0----|--------------------------------|
http://classicalguitartablature.blogspot.com/
E| 7------ 7---- 7 7------ 7 5----|-- 5-- 7---------- 7------ 7----|
B| 5------ 5---- 5 5------ 5-- 5--| 8---- 5---------- 5------------|
G| 5------ 5---- 5 5------ 5------| 5---- 5---------- 5------------|
D|--------------------------------|--------------------------------|
A| 0------------------ 0----------| 0-------------------- 0--------|
E|--------------------------------|--------------------------------|
http://classicalguitartablature.blogspot.com/
E| 7------------------------------|-------- 7---- 7-- 7---- 7------|
B| 5-- 8 5 8 5-- 5----------------|-------- 5---- 5-- 5---- 5------|
G| 5------------ 5-- 5---- 5---- 5|-------- 5---- 5-- 5---- 5------|
D|---------------------- 7------ 5|--------------------------------|
A| 0------------------------------| 0------------------ 0------ 0--|
E|--------------------------------|--------------------------------|
http://classicalguitartablature.blogspot.com/
E| 7------------------------------| 7 4----------------------------|
B| 5------------ 5----------------| 5 5-- 5---------------- 5------|
G| 6---------- 6---- 6-------- 6--| 6 6------ 6------------ 6---- 6|
D|-------- 7----------------------|--------------------------------|
A|--------------------------------|--------------------------------|
E| 7------------------------------| 7------------------ 7---- 7----|
http://classicalguitartablature.blogspot.com/
E| 7 4----------------------------|--------------------------------|
B| 5 5-- 5---------------- 5---- 5|-- 5------ 4---- 5 5---- 2------|
G|---------- 6------------ 6---- 6|-- 6---- 4 4---- 4 4-- 2 2------|
D|------------------------------ 7|-- 7---- 4 4---- 2 2-- 1-- 1----|
A|--------------------------------|--------------------------------|
E| 7---------------- 7------ 7-- 7|-- 7---- 5 5---- 4 4---- 2 2----|
http://classicalguitartablature.blogspot.com/
E|--------------------------------|--------------------------------|
B| 2------------ 0-------- 2------|--------------------------------|
G| 1-------- 1--------------------|--------------------------------|
D| 2-- 2--------------------------|--------------------------------|
A|--------------------------------|--------------------------------|
E| 0------------------------------|--------------------------------|
http://classicalguitartablature.blogspot.com/
0 com

Release Me (BASIC)

Engelbert Humperdinck's tune fingerstyle chord melody guitar BASIC arrangement played in the key of C.

Release Me-Engelbert Humperdinck-Bob Dylan-BASIC Arrangement played in the key of C.
http://classicalguitartablature.blogspot.com/
E|---------------------- 3|------------------------|
B|------ 1----------------|-------- 1--------------|
G|------------ 0------ 0--|------------ 0------ 0--|
D|---- 2---------- 2------|---- 2---------- 2------|
A| 3----------------------|------------------------|
E|------------------------|------------------------|
http://classicalguitartablature.blogspot.com/
E| 1----------------------|---------------------- 3|
B| 0----------------------|------------------------|
G|-------- 0---------- 0--|-------- 0---------- 0--|
D|---- 0---------- 0------|---- 0---------- 0------|
A|------------------------| 0---------- 2-------- 3|
E| 3---------- 3----------|------------------------|
http://classicalguitartablature.blogspot.com/
http://classicalguitartablature.blogspot.com/
E|------------------------|---------------- 2---- 1|
B|------------ 1----------|------------ 1-------- 1|
G|-------- 0------ 0------|-------- 0------------ 0|
D|---- 2-------------- 2--|---- 2-------- 0--------|
A|------------------------|------------------------|
E|------------------------| 3----------------------|
http://classicalguitartablature.blogspot.com/
E|------ 0----------------| 3----------------------|
B|------ 1---------- 1----| 3---------- 6----------|
G|---------------- 0------|-------- 3-- 3---- 3----|
D|------------ 2----------| 3-- 3---------- 5------|
A|------------------------|------------ 3----------|
E| 0----------------------| 3----------------------|
http://classicalguitartablature.blogspot.com/
E|------------------------|------------------------|
B|------------ 1----------|------------------------|
G| 2------ 2------ 2------|-------- 2---------- 2--|
D|---- 3-------------- 3--|---- 3---------- 3------|
A|------------------------| 0---------- 3----------|
E| 1----------------------|------------------------|
http://classicalguitartablature.blogspot.com/
E|------------------------|------------------------|
B|------------ 1----------|------------ 1----------|
G|-------- 2------ 2------|-------- 2------ 2------|
D|---- 3-------------- 3--|---- 3-------------- 3--|
A|------------------------| 3----------------------|
E| 1----------------------|------------------------|
http://classicalguitartablature.blogspot.com/
E|------------------------|------------------------|
B| 0---------- 0----------|---------------- 0------|
G|-------- 0---------- 0--|-------- 0---------- 2--|
D|---- 0---------- 0------|---- 0------------------|
A|------------------------| 2---------- 5----------|
E| 3----------------------|------------------------|
http://classicalguitartablature.blogspot.com/
E|------------ 1----------|-------------- 1-- 3----|
B|------------------------|------------ 0----------|
G| 0---- 0------------ 0--|-------- 0--------------|
D|---- 0---------- 0------|---- 0------------------|
A|------------------------| 2----------------------|
E| 3----------------------|------------------------|
http://classicalguitartablature.blogspot.com/
E| 0----------------------|---------- 0------------|
B| 1-------------------- 1|------------------------|
G|-------- 0 0-------- 0--|-------- 0---------- 0--|
D|---- 2---------- 2------|-- 2------------ 2------|
A| 3----------------------|------------------------|
E|------------------------| 0----------------------|
http://classicalguitartablature.blogspot.com/
E|------------ 3----------|---------------- 3---- 3|
B| 3----------------------|------------------------|
G| 0---- 0----------------|-------- 0--------------|
D|---- 0---------- 0------|---- 0-------------- 0--|
A|------------------------| 0---------- 2-------- 3|
E| 3------------------ 3--|------------------------|
http://classicalguitartablature.blogspot.com/
E|------------------------|---------------- 2---- 1|
B|------------ 1----------|------------ 1-------- 1|
G|-------- 0------ 0------|-------- 0------------ 0|
D|---- 2-------------- 2--|---- 2-------- 0--------|
A|------------------------|------------------------|
E|------------------------| 3----------------------|
http://classicalguitartablature.blogspot.com/
E|------ 0----------------| 3----------------------|
B|------ 1---------- 1----| 3---------- 6----------|
G|---------------- 0------|-------- 3-- 3---- 3----|
D|------------ 2----------| 3-- 3---------- 5------|
A|------------------------|------------ 3----------|
E| 0----------------------| 3----------------------|
http://classicalguitartablature.blogspot.com/
E|------------------------|------------------------|
B|------------ 1----------|------------------------|
G| 2------ 2------ 2------|-------- 2---------- 2--|
D|---- 3-------------- 3--|---- 3---------- 3------|
A|------------------------| 0---------- 3----------|
E| 1----------------------|------------------------|
http://classicalguitartablature.blogspot.com/
E|------------------------|------------ 5----------|
B|------------ 1----------|---------------- 6------|
G|-------- 2------ 2------|-------- 5---------- 5--|
D|---- 3-------------- 3--|-- 7--------------------|
A|------------------------|------------------------|
E| 1----------------------| 5----------------------|
http://classicalguitartablature.blogspot.com/
E| 3------ 0--------------|-------------------- 0--|
B| 1------------------ 1--|------------ 1-- 3------|
G|---------------- 0------|-------- 0--------------|
D|------------ 2----------|---- 2------------------|
A| 3----------------------|------------------------|
E|------------------------| 0----------------------|
http://classicalguitartablature.blogspot.com/
E|------------------------|------------------------|
B|------------ 3----------|---------------- 0-- 3--|
G| 0------ 0------ 0------|-------- 0--------------|
D|---- 0-------------- 0--|---- 0------ 0----------|
A|------------------------| 2----------------------|
E| 3----------------------|------------------------|
http://classicalguitartablature.blogspot.com/
E|------------------------|------------------------|
B| 1---------- 1----------|------------------------|
G|-------- 0---- 0--------|-------- 0-------- 0----|
D|---- 2-------------- 2--|---- 2---------- 2------|
A| 3----------------------|------------------------|
E|------------------------| 0---------- 3----------|
http://classicalguitartablature.blogspot.com/
E|------------------------|---------- 9------------|
B|------------ 2----------|---------------- 6------|
G|-------- 4------ 4------|-------- 6---------- 6--|
D|---- 3-------------- 3--|---- 6------------------|
A| 4----------------------| 8----------------------|
E|------------------------|------------------------|
http://classicalguitartablature.blogspot.com/
E| 9-------------- 9------|---------------- 8---- 7|
B|---- 7------ 7------ 7--|-------- 7------------ 7|
G|-------- 6--------------|---- 6------ 6----------|
D|------------------------|------------------------|
A| 9----------------------|------------------------|
E|------------------------| 9-------------------- 6|
http://classicalguitartablature.blogspot.com/
E|------ 6---------- 6-- 9|------------------------|
B|------ 7-------- 7------|-------- 9--12----------|
G|---------- 6------------|-- 9-------- 9------ 9--|
D|------------------------|----------------11------|
A|------------------------|------------ 9----------|
E|------------------------| 9----------------------|
http://classicalguitartablature.blogspot.com/
E|------------------------|------------------------|
B| 4---------- 4----------|------------------------|
G| 4------ 4------ 4------|-------- 4------ 4------|
D|---- 4-------------- 4--|---- 4------ 4------ 4--|
A| 2----------------------|------------------------|
E|------------------------| 2----------------------|
http://classicalguitartablature.blogspot.com/
E|------------------------|------------------------|
B| 4-------- 4------------|------------ 4----------|
G| 4------ 4-------- 4----|-------- 4------ 4------|
D|---- 4-------- 4--------|---- 4-------------- 4--|
A| 2----------------------|------------------------|
E|------------------------| 2----------------------|
http://classicalguitartablature.blogspot.com/
E| 1----------------------|-------------- 1--------|
B| 2---------- 2----------|------------ 2------ 4--|
G|-------- 1------ 1------|-------- 1--------------|
D|---- 3-------------- 3--|---- 3------------------|
A| 4----------------------|------------------------|
E|------------------------| 1----------------------|
http://classicalguitartablature.blogspot.com/
E|------------ 7----------|-------------------- 9--|
B|------------------------|------------ 9--12------|
G| 6------ 6---------- 6--|--------10--------------|
D|---- 6---------- 6------|----11------------------|
A|------------------------|------------------------|
E| 4----------------------| 9----------------------|
http://classicalguitartablature.blogspot.com/
E| 6----------------------|------------ 6----------|
B| 7------ 7--------------| 7----------------------|
G| 6---------- 6------ 6--|-------- 6---------- 6--|
D|---- 8---------- 8------|---- 8---------- 8------|
A| 9----------------------|------------------------|
E|------------------------| 6----------------------|
http://classicalguitartablature.blogspot.com/
E|------------ 9----------|------------------------|
B| 9----------------------|------------------------|
G|10------10--------------|--------10----------10--|
D|----11----------11------|----11----------11------|
A|------------------------|------------------------|
E| 9------------------ 9--|11----------13----------|
http://classicalguitartablature.blogspot.com/
E| 9-------------- 9------|---------------- 8---- 7|
B|---- 7------ 7------ 7--|-------- 7------------ 7|
G|-------- 6--------------|---- 6------ 6----------|
D|------------------------|------------------------|
A| 9----------------------|------------------------|
E|------------------------| 9-------------------- 6|
http://classicalguitartablature.blogspot.com/
E|------ 6---------- 6-- 9|------------------------|
B|------ 7-------- 7------|-------- 9--12----------|
G|---------- 6------------|-- 9-------- 9------ 9--|
D|------------------------|----------------11------|
A|------------------------|------------ 9----------|
E|------------------------| 9----------------------|
http://classicalguitartablature.blogspot.com/
E|------------------------|------------------------|
B| 4---------- 4----------|------------------------|
G| 4------ 4------ 4------|-------- 4---------- 8--|
D|---- 4-------------- 4--|---- 4---------- 9------|
A|------------------------| 6---------- 9----------|
E| 7----------------------|------------------------|
http://classicalguitartablature.blogspot.com/
E|------------------------|----------11------------|
B|------------ 7----------|----------------12------|
G|-------- 8------ 8------|------11------------11--|
D|---- 9-------------- 9--|----13------------------|
A|------------------------|------------------------|
E| 7----------------------|11----------------------|
http://classicalguitartablature.blogspot.com/
E| 9------ 6-------- 6----|-------------------- 6--|
B| 7------ 7------ 7------|------------ 7-- 9------|
G| 6---------- 6----------|------ 6----------------|
D|------------------------|---- 8------------------|
A| 9----------------------|------------------------|
E|------------------------| 6----------------------|
http://classicalguitartablature.blogspot.com/
E|------------------------|------------------------|
B|------------ 6----------|---------------- 6-- 9--|
G| 6------ 6------ 6------|-------- 6--------------|
D|---- 6-------------- 6--|---- 6------ 6----------|
A|------------------------| 8----------------------|
E| 9----------------------|------------------------|
http://classicalguitartablature.blogspot.com/
E|---------------------- 9|------------ 9----------|
B| 7---------- 7----------|------------------------|
G| 6------ 6------ 6------|-------- 6---------- 6--|
D|---- 8-------------- 8--|-- 8------------ 8------|
A| 9----------------------|------------------------|
E|------------------------| 6----------------------|
http://classicalguitartablature.blogspot.com/
E|11----------------------|------------------------|
B| 7-- 7------------------| 7---------- 7----------|
G| 8------ 8------ 8------| 4------ 4---------- 4--|
D|------------ 9------ 9--|---- 4---------- 4------|
A|------------------------| 6----------------------|
E| 7----------------------|------------------------|
http://classicalguitartablature.blogspot.com/
E| 6----------------------| 6------------ 4--------|
B| 7---------- 7----------|-------------- 6--------|
G|-------- 6------ 6------|---------- 6------------|
D|---- 8-------------- 8--|------ 8------------ 6--|
A| 9----------------------| 9------------ 4--------|
E|------------------------|------------------------|
http://classicalguitartablature.blogspot.com/
E|---------------- 2------|------------------------|
B|---------------- 2------|------------------------|
G|-- 6---------- 3--------| 3----------------------|
D|-------------------- 4--|------------------------|
A|------------------------|------------------------|
E|------------ 2----------|------------------------|
http://classicalguitartablature.blogspot.com/
0 com

Stuck In A Moment (BASIC)

U2's tune fingerstyle chord melody guitar BASIC arrangement played in the key of E.

Stuck In A Moment-U2-BASIC Arrangement played in the key of E.
http://classicalguitartablature.blogspot.com/
E|--------------------------------|--------------------------------|
B| 0---- 0-- 5---------- 5--------| 2---- 2---- 5-------- 5--------|
G| 1---- 1-- 4------ 4------ 4----| 2---- 2---- 4---- 4-------- 4--|
D| 2---- 2-- 2------ 2 2----------| 2---- 2---- 2-- 2---- 2--------|
A|--------------------------------|--------------------------------|
E| 0------ 0 4--------------------| 5-------- 0 4------------------|
http://classicalguitartablature.blogspot.com/
E|--------------------------------|--------------------------------|
B| 4---- 4---- 5---------- 5------| 2---- 2---- 0-------- 0--------|
G| 4---- 4---- 4------ 4------ 4--| 2---- 2---- 1---- 1-------- 1--|
D| 4---- 4---------- 2-- 2--------| 2---- 2---- 2-- 2-- 2----------|
A| 2---------- 4------------------|--------------------------------|
E|--------------------------------| 5-------- 0 0------------------|
http://classicalguitartablature.blogspot.com/
http://classicalguitartablature.blogspot.com/
E|--------------------------------|--------------------------------|
B| 0---- 0---- 0---------- 0------| 2 2-- 2---------------- 5------|
G| 1---- 1---- 1------ 1------ 1--| 2 2------ 4 4---- 4-------- 4--|
D| 2---- 2---- 2---- 2-- 2--------| 2---------------- 2 2----------|
A|--------------------------------| 0------------------------------|
E| 0-------- 0 4------------------|------------ 4------------------|
http://classicalguitartablature.blogspot.com/
E|--------------------------------|--------------------------------|
B| 2 2-- 2-- 0 0---------- 0------| 2 2-- 2-- 0 0---------- 0------|
G| 4 4-------- 1------ 1------ 1--| 2 2-- 2---- 1------ 1------ 1--|
D| 4 4-------- 2---- 2-- 2--------| 2 2-- 2---- 2---- 2-- 2--------|
A| 2---------- 4------------------| 0------------------------------|
E|--------------------------------|------------ 0------------------|
http://classicalguitartablature.blogspot.com/
E|--------------------------------|--------------------------------|
B| 0---- 0---- 0---------- 0------| 2 2-- 2---------------- 5------|
G| 1---- 1---- 1------ 1------ 1--| 2 2------ 4 4---- 4-------- 4--|
D| 2---- 2---- 2---- 2-- 2--------| 2---------------- 2 2----------|
A|--------------------------------| 0------------------------------|
E| 0-------- 0 4------------------|------------ 4------------------|
http://classicalguitartablature.blogspot.com/
E|--------------------------------|--------------------------------|
B| 2 2-- 2-- 0 0---------- 0------| 2 2-- 2-- 0 0---------- 0------|
G| 4 4-------- 1------ 1------ 1--| 2 2-- 2---- 1------ 1------ 1--|
D| 4 4-------- 2---- 2-- 2--------| 2 2-- 2---- 2---- 2-- 2--------|
A| 2---------- 4------------------| 0------------------------------|
E|--------------------------------|------------ 0------------------|
http://classicalguitartablature.blogspot.com/
E|---------------- 4------------ 2|--------------------------------|
B| 5------ 5------ 5 7-- 5------ 2|-------- 2-------------- 2------|
G| 4---------- 4-- 4-------- 6----|-------- 3---- 3----------------|
D| 6-- 6--------------------------|---- 4------ 4------ 4----------|
A| 4------------ 4----------------|--------------------------------|
E|--------------------------------| 2-------------- 2---------- 4--|
http://classicalguitartablature.blogspot.com/
E|---------------- 4 2---------- 2|---------- 4 2------------------|
B|-------- 2------ 2---- 5-- 2-- 4|-------- 4---- 5-------- 5------|
G|-------- 2-- 4-- 4------------ 4|---- 4------------ 4------ 4----|
D|---- 2--------------------------|--------------------------------|
A| 0------------ 0----------------| 2------------ 2----------------|
E|--------------------------------|--------------------------------|
http://classicalguitartablature.blogspot.com/
E|---------------- 4--------------|-------------- 4 2--------------|
B|------ 5-------- 5 7-- 5--------|-------- 2---- 2------ 5-- 2----|
G|------------ 4 4---------- 6----|------------ 4 4----------------|
D|---- 6--------------------------|---- 2--------------------------|
A| 4------------ 4----------------| 0------------ 0-------------- 4|
E|--------------------------------|--------------------------------|
http://classicalguitartablature.blogspot.com/
E|---------------- 4-------- 4----| 4-- 4-- 4------ 4-- 4-- 4 2----|
B|-------- 5-------- 7-- 5--------| 4-- 4-- 4------ 4-- 4-- 4-- 5 2|
G|------------ 4 4----------------| 4-- 4---------- 4--------------|
D|---- 6--------------------------|--------------------------------|
A|-------------- 4----------------| 2-- 2-- 2-- 2-- 2-- 2-- 2-- 2--|
E|--------------------------------|--------------------------------|
http://classicalguitartablature.blogspot.com/
E|------ 2------------------------| 2-------- 2---------- 2--------|
B|-------- 0-- 5------------------| 2-- 5---- 2-- 5---------- 5----|
G|------------ 4------ 4------ 4--| 2------ 4 4------ 4------------|
D|---- 2------ 2---------- 2------|-------------- 2-- 2------------|
A|--------------------------------| 0------------------------------|
E| 0---------- 4------------------|------------ 4------------------|
http://classicalguitartablature.blogspot.com/
E|--------------------------------|--------------------------------|
B|---------------------------- 0--| 2---- 2-- 0---------------- 0--|
G| 2-- 1-- 1-- 1------ 2----------| 2---- 2-- 1---------- 1--------|
D| 4-- 4------ 2------ 2-- 2------| 2---- 2-- 2---- 2 2------------|
A| 2---------- 4------------------| 0------------------------------|
E|--------------------------------|---------- 0 0------------------|
http://classicalguitartablature.blogspot.com/
E|-------- 2-------------------- 5|---- 4 2---- 4---- 4------------|
B|-------- 0-- 5------------------| 2-- 2 2---- 5---- 5---- 7-- 5--|
G|-------- 1-- 4------ 4------ 4--| 2-- 2-- 2-- 4------ 4------ 4--|
D|---- 2------ 2---------- 2------|------------------------ 6-- 6--|
A|--------------------------------| 0------------------------------|
E| 0---------- 4------------------|------------ 4------------------|
http://classicalguitartablature.blogspot.com/
E| 2------ 4----------------------|--------------------------------|
B| 5-- 5------ 7------ 5----------| 2------ 2-- 0------------------|
G| 2-- 2------ 4------ 4------ 4--| 2------ 2-- 1-------- 1--------|
D|---- 4------ 6------ 6-- 6------| 2-- 2------ 2-- 2 2-------- 2--|
A| 3---------- 4------------------| 0------------------------------|
E|--------------------------------|------------ 0------------------|
http://classicalguitartablature.blogspot.com/
E|--------------------------------|--------------------------------|
B|--------------------------------| 2-- 2-- 2 2---- 5-- 5 5---- 5--|
G|-------------- 2-- 2 2---- 2----| 2-- 2-- 2 2---- 2 2-- 2---- 2--|
D| 4 4-- 4---- 4------------------| 2-- 2-- 2-- 2-- 2 2-- 2---- 2--|
A|--------------------------------| 0------ 0------ 0------ 0------|
E| 2------ 2---- 2-------- 2------|--------------------------------|
http://classicalguitartablature.blogspot.com/
E| 4-------------------- 4--------|--------------------------------|
B| 5---- 5---- 5-------------- 7 5|------------ 5-------- 5--------|
G| 4---- 4---- 4------ 4----------|------ 4---- 4---- 4------------|
D|------ 6---- 6---- 6------------|------ 6---- 6-- 6---------- 6--|
A|--------------------------------|--------------------------------|
E| 0-------- 0 0------------------| 0-------- 0 0------------------|
http://classicalguitartablature.blogspot.com/
E|--------------------------------|--------------------------------|
B|--------------------------------| 2-- 2-- 2 2---- 5-- 5 5---- 5--|
G|-------------- 2-- 2 2---- 2----| 2-- 2-- 2 2---- 2 2-- 2---- 2--|
D| 4 4-- 4---- 4------------------| 2-- 2-- 2-- 2-- 2 2-- 2---- 2--|
A|--------------------------------| 0------ 0------ 0------ 0------|
E| 2------ 2---- 2-------- 2------|--------------------------------|
http://classicalguitartablature.blogspot.com/
E| 2---------- 2-------- 2---- 4 2|--------------------------------|
B| 3------ 3-- 3---------------- 2|-------- 2---- 2------ 2--------|
G| 2---------- 2---- 2------------| 2------ 2---- 2------ 2--------|
D|------ 4-------- 4-- 4----------|-------- 2------ 2---- 2--------|
A| 5-------- 0 5------------------| 2-- 2-- 2-- 2-- 2-- 2-- 2-- 2--|
E|--------------------------------|--------------------------------|
http://classicalguitartablature.blogspot.com/
E|------ 4-- 7------ 4-------- 9--|------ 7---- 4------------------|
B|------ 5-- 5------ 5-------- 5--|------ 5---- 5---------- 5------|
G|------ 4---------- 4-------- 6--|------ 6---- 4------ 4---- 4----|
D|---- 6------------------ 6------|---------- 6------ 6------------|
A|--------------------------------| 0------------------------------|
E| 0-------- 4--------------------|------------ 4------------------|
http://classicalguitartablature.blogspot.com/
E|------ 4-- 7------ 4-------- 9--|------ 7-- 4--------------------|
B|------ 4-- 5------ 5-------- 5--|------ 5-- 5-------- 5----------|
G|---- 4 4-- 4------ 4-- 4---- 6--|---- 6---- 4------ 4------------|
D|---- 4--------------------------|---------------- 6---------- 6--|
A| 2---------- 4---------------- 0|--------------------------------|
E|--------------------------------|---------- 0--------------------|
http://classicalguitartablature.blogspot.com/
E|--------------------------------|------------------ 4------------|
B|------ 2---- 5------ 2------ 5--|-------- 5-- 7---- 7------------|
G|------ 1---- 4---- 4-------- 6--|------ 6 6-- 4-------------- 4--|
D|---- 2------ 2---- 2---- 2-- 7--|------------ 6---------- 6------|
A|--------------------------------|--------------------------------|
E| 0---------- 4------------------| 5---------- 4------------------|
http://classicalguitartablature.blogspot.com/
E|---------------------------- 5--|--------------------------------|
B|---------- 5---------------- 5--|------ 5-- 5---------- 5--------|
G|------ 4-- 4-------- 6------ 6--|---------- 4------ 4-------- 4--|
D|------ 4-- 6-------- 6----------|---- 7------ 6---- 6 6----------|
A| 2-------- 4--------------------| 0------------------------------|
E|--------------------------------|------------ 0------------------|
http://classicalguitartablature.blogspot.com/
E|--------------------------------|------------------ 4------------|
B|------ 2---- 5------ 2------ 5--|-------- 5-- 7---- 7------------|
G|------ 1---- 4---- 4-------- 6--|------ 6 6-- 4-------------- 4--|
D|---- 2------ 2---- 2---- 2-- 7--|------------ 6---------- 6------|
A|--------------------------------|--------------------------------|
E| 0---------- 4------------------| 5---------- 4------------------|
http://classicalguitartablature.blogspot.com/
E|---------------------------- 5--|---------------------------- 4 2|
B|---------- 5---------------- 5--|------ 5-- 5---------- 5-- 7-- 2|
G|------ 4-- 4-------- 6------ 6--|---------- 4------------------ 2|
D|------ 4-- 6-------- 6----------|---- 7---- 6------ 6------------|
A| 2-------- 4--------------------| 0------------------------------|
E|--------------------------------|------------ 0------------------|
http://classicalguitartablature.blogspot.com/
E|---------- 2 4-- 2--------------|-- 0----------------------------|
B|-- 5------------ 5------ 5------|-- 0----------------------------|
G|---------------- 4------ 2------| 1------ 1----------------------|
D|------------------------ 2------|------ 4------------------------|
A| 0-- 0-- 0 0--------------------|--------------------------------|
E|---------------- 4------ 2------| 0------------------------------|
http://classicalguitartablature.blogspot.com/