To celebrate the anniversary, I am giving you (finally...) : iPhone LickByNeck !!!!!!

Axel F (BASIC)

Harold Faltermeyer's tune fingerstyle chord melody guitar BASIC arrangement played in the key of Em.
Axel F-Harold Faltermeyer-BASIC Arrangement played in the key of Em.
ClassicalGuitarTablature http://classicalguitartablature.blogspot.com/
E|--------------------------------|--------------------------------|
B|--------------------------------|--------------------------------|
G|--------------------------------|--------------------------------|
D|--------------------------------|--------------------------------|
A|------ 7------------------------|-------- 7------------------ 7--|
E| 0----------10------ 7-- 7--10--| 0---------------- 7 7--10------|
ClassicalGuitarTablature http://classicalguitartablature.blogspot.com/
E|--------------------------------|--------------------------------|
B|--------------------------------|--------------------------------|
G|--------------------------------|--------------------------------|
D|--------------------------------|--------------------------------|
A|---------------------------- 7--| 7---------------- 5------------|
E| 8------ 8----10-- 7 7--10------|-------------------- 7-- 5-- 3--|
ClassicalGuitarTablature http://classicalguitartablature.blogspot.com/
ClassicalGuitarTablature http://classicalguitartablature.blogspot.com/
E|--------------------------------|------ 7------------ 8-- 7------|
B|-------- 8--------10------------|---------------------------- 8--|
G| 9---------- 9-- 9------ 9-- 7--| 9------------ 9-- 9------------|
D|--------------------------------|--------------------------------|
A|-------- 7----------------------|-------- 7------------------ 7--|
E| 0----------10--10 7---- 7--10--| 0---------------- 7 7--10------|
ClassicalGuitarTablature http://classicalguitartablature.blogspot.com/
E|--------12-- 0-------------- 0--|--------------------------------|
B|----12------------------ 7-- 0--|--------------------------------|
G| 9------------ 7-- 7------------|--------------------------------|
D|-------------------- 9----------|--------------------------------|
A|---------------------------- 7--| 7---------------- 5------------|
E| 8------ 8----10-- 7 7--10------|-------------------- 7-- 5-- 3--|
ClassicalGuitarTablature http://classicalguitartablature.blogspot.com/
E|--------------------------------|------ 7------------ 8-- 7------|
B|-------- 8--------10------------|---------------------------- 8--|
G| 9---------- 9-- 9------ 9-- 7--| 9------------ 9-- 9------------|
D|--------------------------------|--------------------------------|
A|-------- 7----------------------|-------- 7------------------ 7--|
E| 0----------10--10 7---- 7--10--| 0---------------- 7 7--10------|
ClassicalGuitarTablature http://classicalguitartablature.blogspot.com/
E|--------12-- 0-------------- 0--|--------------------------------|
B|----12------------------ 7-- 0--|--------------------------------|
G| 9------------ 7-- 7------------|--------------------------------|
D|-------------------- 9----------|--------------------------------|
A|---------------------------- 7--| 7---------------- 5------------|
E| 8------ 8----10-- 7 7--10------|-------------------- 7-- 5-- 3--|
ClassicalGuitarTablature http://classicalguitartablature.blogspot.com/
E|--------------------------------|--------------------------------|
B|---- 5-- 5-- 5 3-- 3-- 3 2-- 2--|-------------- 3-- 3 2----------|
G|---- 4-- 4-- 4 4-- 4-- 4 4-- 4--|---- 4-- 4-- 4 4-- 4---- 4------|
D|---- 2-- 2-- 2 2-- 2-- 2 2-- 2--|---- 2-- 2-- 2 2-- 2 2-- 2------|
A|-------------- 5-- 5 2-- 2-- 5--|------------------ 2 2-- 5------|
E| 0------ 0----------------------| 0------ 0------------------ 0--|
ClassicalGuitarTablature http://classicalguitartablature.blogspot.com/
E|--------------------------------|--------------------------------|
B|--------------------------------|---- 0-- 0-- 0---- 0-- 0--------|
G|---- 0-- 0-- 0-- 0 2-- 2-- 2 2--|---- 1-- 1-- 1 2-- 1-- 1--------|
D|---- 2-- 2-- 2---- 4-- 4-- 4 4--|---- 2-- 2-- 2 2-- 2-- 2--------|
A| 3------ 3---- 5 5-- 2-- 5------|------------------ 5 2-- 0------|
E|---------------------------- 0--| 0-------------------------- 3--|
ClassicalGuitarTablature http://classicalguitartablature.blogspot.com/
E|--------------------------------|--------------------------------|
B|---- 5-- 5-- 5 3-- 3-- 3 2-- 2--|-------------- 3-- 3 2----------|
G|---- 4-- 4-- 4 4-- 4-- 4 4-- 4--|---- 4-- 4-- 4 4-- 4---- 4------|
D|---- 2-- 2-- 2 2-- 2-- 2 2-- 2--|---- 2-- 2-- 2 2-- 2 2-- 2------|
A|-------------- 5-- 5 2-- 2-- 5--|------------------ 2 2-- 5------|
E| 0------ 0----------------------| 0------ 0------------------ 0--|
ClassicalGuitarTablature http://classicalguitartablature.blogspot.com/
E|--------------------------------|--------------------------------|
B|--------------------------------|---- 0-- 0-- 0---- 0-- 0--------|
G|---- 0-- 0-- 0-- 0 2-- 2-- 2 2--|---- 1-- 1-- 1 2-- 1-- 1--------|
D|---- 2-- 2-- 2---- 4-- 4-- 4 4--|---- 2-- 2-- 2 2-- 2-- 2--------|
A| 3------ 3---- 5 5-- 2-- 5------|------------------ 5 2-- 0------|
E|---------------------------- 0--| 0-------------------------- 3--|
ClassicalGuitarTablature http://classicalguitartablature.blogspot.com/
E|10------------------------------|--------------------------------|
B|10------------------------------|--------------------------------|
G| 9------------------------------|--------------------------------|
D| 9------------------------------|--------------------------------|
A|-------- 7----------------------|-------- 7----------------------|
E| 0------------1010-- 7-- 7--10--| 0------------1010-- 7-- 7--10--|
ClassicalGuitarTablature http://classicalguitartablature.blogspot.com/
E|--------------------------------|--------------------------------|
B|--------------------------------|--------------------------------|
G|--------------------------------|--------------------------------|
D|--------------------------------|--------------------------------|
A|--------------------------------|-------- 7----------------------|
E| 0------------------------------| 0----------10--10 7---- 7--10--|
ClassicalGuitarTablature http://classicalguitartablature.blogspot.com/
E|--------------------------------|--------------------------------|
B|--------------------------------|--------------------------------|
G|--------------------------------|--------------------------------|
D|--------------------------------|--------------------------------|
A|-------- 7------------------ 7--|---------------------------- 7--|
E| 0---------------- 7 7--10------| 8------ 8----10-- 7 7--10------|
ClassicalGuitarTablature http://classicalguitartablature.blogspot.com/
E|--------------------------------|12----------10------------ 7----|
B|--------------------------------|--------------------------------|
G|--------------------------------|--------------------------------|
D|--------------------------------|--------------------------------|
A| 7---------------- 5------------|-------- 7----------------------|
E|-------------------- 7-- 5-- 3--| 0----------10--10 7---- 7--10--|
ClassicalGuitarTablature http://classicalguitartablature.blogspot.com/
E|--------------------------------|-- 0----------------------------|
B|------------10-------- 8--------|--------------------------------|
G|--------------------------------|--------------------------------|
D|--------------------------------|--------------------------------|
A|-------- 7------------------ 7--|---------------------------- 7--|
E| 0---------------- 7 7--10------| 8------ 8----10-- 7 7--10------|
ClassicalGuitarTablature http://classicalguitartablature.blogspot.com/
E|--------------------------------|--------------------------------|
B|--------------------------------|-------- 8--------10------------|
G|--------------------------------| 9---------- 9-- 9------ 9-- 7--|
D|--------------------------------|--------------------------------|
A| 7---------------- 5------------|-------- 7----------------------|
E|-------------------- 7-- 5-- 3--| 0----------10--10 7---- 7--10--|
ClassicalGuitarTablature http://classicalguitartablature.blogspot.com/
E|------ 7------------ 8-- 7------|--------12-- 0-------------- 0--|
B|---------------------------- 8--|----12------------------ 7-- 0--|
G| 9------------ 9-- 9------------| 9------------ 7-- 7------------|
D|--------------------------------|-------------------- 9----------|
A|-------- 7------------------ 7--|---------------------------- 7--|
E| 0---------------- 7 7--10------| 8------ 8----10-- 7 7--10------|
ClassicalGuitarTablature http://classicalguitartablature.blogspot.com/
E|--------------------------------|--------------------------------|
B|--------------------------------|-------- 8--------10------------|
G|--------------------------------| 9---------- 9-- 9------ 9-- 7--|
D|--------------------------------|--------------------------------|
A| 7---------------- 5------------|-------- 7----------------------|
E|-------------------- 7-- 5-- 3--| 0----------10--10 7---- 7--10--|
ClassicalGuitarTablature http://classicalguitartablature.blogspot.com/
E|------ 7------------ 8-- 7------|--------12-- 0-------------- 0--|
B|---------------------------- 8--|----12------------------ 7-- 0--|
G| 9------------ 9-- 9------------| 9------------ 7-- 7------------|
D|--------------------------------|-------------------- 9----------|
A|-------- 7------------------ 7--|---------------------------- 7--|
E| 0---------------- 7 7--10------| 8------ 8----10-- 7 7--10------|
ClassicalGuitarTablature http://classicalguitartablature.blogspot.com/
E|--------------------------------|--------------------------------|
B|--------------------------------|--------------------------------|
G|--------------------------------| 0-------- 0---------- 0--------|
D|--------------------------------|------ 0---------- 0-------- 0--|
A| 7------------------------------|--------------------------------|
E|------------------ 0-- 0 0-- 2--| 3---- 3---- 3---- 3---- 3-- 3--|
ClassicalGuitarTablature http://classicalguitartablature.blogspot.com/
E|--------------------------------|--------------------------------|
B|--------------------------------|--------------------------------|
G| 0---------- 0---------- 0------| 0---------- 0---------- 0------|
D|------ 0------------ 0------ 0--|------ 0------------ 0------ 0--|
A|--------------------------------|--------------------------------|
E| 0---- 0---- 0------ 0-- 0-- 0--| 1---- 1---- 1------ 1-- 1-- 1--|
ClassicalGuitarTablature http://classicalguitartablature.blogspot.com/
E|--------------------------------| 3---------- 3---------- 3---- 3|
B|--------------------------------|------ 3------------ 3------ 3--|
G| 0---------- 0---------- 0------|--------------------------------|
D|------ 0------------ 0------ 0--|--------------------------------|
A| 5---- 5---- 5------ 5-- 5-- 5--|--------------------------------|
E|--------------------------------| 3---- 3---- 3------ 3-- 3-- 3--|
ClassicalGuitarTablature http://classicalguitartablature.blogspot.com/
E|------------ 3---------- 3------| 3---------- 3---------- 3------|
B|------ 3------------ 3------ 3--|------ 3------------ 3------ 3--|
G|--------------------------------|--------------------------------|
D|--------------------------------|--------------------------------|
A|--------------------------------|--------------------------------|
E| 0---- 0---- 0------ 0-- 0-- 0--| 1---- 1---- 1------ 1-- 1-- 1--|
ClassicalGuitarTablature http://classicalguitartablature.blogspot.com/
E| 3---------- 3---------- 3------|--------------------------------|
B|------ 3---------- 3-------- 3--| 3 0-------- 0-- 3-- 0----------|
G|--------------------------------|---- 2 0-- 2------------ 2-- 0--|
D|--------------------------------|--------------------------------|
A| 5---- 5---- 5---- 5---- 5-- 5--|--------------------------------|
E|--------------------------------| 3---- 3---- 3---- 3---- 3-- 3--|
ClassicalGuitarTablature http://classicalguitartablature.blogspot.com/
E|--------------------------------|--------------------------------|
B| 3 0-------- 0-- 3-- 0----------| 3 1---------- 1 3-- 1----------|
G|---- 2 0-- 2------------ 2-- 0--|---- 2 0-- 2------------ 2-- 0--|
D|--------------------------------|--------------------------------|
A|--------------------------------|--------------------------------|
E| 0---- 0---- 0------ 0-- 0-- 0--| 1---- 1---- 1---- 1---- 1-- 1--|
ClassicalGuitarTablature http://classicalguitartablature.blogspot.com/
E|--------------------------------|--------------------------------|
B| 3 0---------- 1 3-- 1----------| 3 0-------- 0-- 3-- 0----------|
G|---- 2 0-- 2------------ 2-- 0--|---- 2 0-- 2------------ 2-- 0--|
D|--------------------------------|--------------------------------|
A| 5---- 5---- 5---- 5---- 5-- 5--|--------------------------------|
E|--------------------------------| 3---- 3---- 3---- 3---- 3-- 3--|
ClassicalGuitarTablature http://classicalguitartablature.blogspot.com/
E|--------------------------------|--------------------------------|
B| 3 0-------- 0-- 3-- 0----------| 3 1---------- 1 3-- 1----------|
G|---- 2 0-- 2------------ 2-- 0--|---- 2 0-- 2------------ 2-- 0--|
D|--------------------------------|--------------------------------|
A|--------------------------------|--------------------------------|
E| 0---- 0---- 0------ 0-- 0-- 0--| 1---- 1---- 1---- 1---- 1-- 1--|
ClassicalGuitarTablature http://classicalguitartablature.blogspot.com/
E|--------------------------------|--------------------------------|
B| 3 0---------- 1 3-- 1----------| 3 1---------- 1 3-- 1----------|
G|---- 2 0-- 2------------ 2-- 0--|---- 2 0-- 2------------ 2-- 0--|
D|--------------------------------|--------------------------------|
A| 5---- 5---- 5---- 5---- 5-- 5--|--------------------------------|
E|--------------------------------| 1---- 1---- 1---- 1---- 1-- 1--|
ClassicalGuitarTablature http://classicalguitartablature.blogspot.com/
E|--------------------------------|--------------------------------|
B| 3 0---------- 1 3-- 1----------|---- 5-- 5-- 5 3-- 3-- 3 2-- 2--|
G|---- 2 0-- 2------------ 2-- 0--|---- 4-- 4-- 4 4-- 4-- 4 4-- 4--|
D|--------------------------------|---- 2-- 2-- 2 2-- 2-- 2 2-- 2--|
A| 5---- 5---- 5---- 5---- 5-- 5--|-------------- 5-- 5 2-- 2-- 5--|
E|--------------------------------| 0------ 0----------------------|
ClassicalGuitarTablature http://classicalguitartablature.blogspot.com/
E|--------------------------------|--------------------------------|
B|-------------- 3-- 3 2----------|--------------------------------|
G|---- 4-- 4-- 4 4-- 4---- 4------|---- 0-- 0-- 0-- 0 2-- 2-- 2 2--|
D|---- 2-- 2-- 2 2-- 2 2-- 2------|---- 2-- 2-- 2---- 4-- 4-- 4 4--|
A|------------------ 2 2-- 5------| 3------ 3---- 5 5-- 2-- 5------|
E| 0------ 0------------------ 0--|---------------------------- 0--|
ClassicalGuitarTablature http://classicalguitartablature.blogspot.com/
E|--------------------------------|--------------------------------|
B|---- 0-- 0-- 0---- 0-- 0--------|---- 5-- 5-- 5 3-- 3-- 3 2-- 2--|
G|---- 1-- 1-- 1 2-- 1-- 1--------|---- 4-- 4-- 4 4-- 4-- 4 4-- 4--|
D|---- 2-- 2-- 2 2-- 2-- 2--------|---- 2-- 2-- 2 2-- 2-- 2 2-- 2--|
A|------------------ 5 2-- 0------|-------------- 5-- 5 2-- 2-- 5--|
E| 0-------------------------- 3--| 0------ 0----------------------|
ClassicalGuitarTablature http://classicalguitartablature.blogspot.com/
E|--------------------------------|--------------------------------|
B|-------------- 3-- 3 2----------|--------------------------------|
G|---- 4-- 4-- 4 4-- 4---- 4------|---- 0-- 0-- 0-- 0 2-- 2-- 2 2--|
D|---- 2-- 2-- 2 2-- 2 2-- 2------|---- 2-- 2-- 2---- 4-- 4-- 4 4--|
A|------------------ 2 2-- 5------| 3------ 3---- 5 5-- 2-- 5------|
E| 0------ 0------------------ 0--|---------------------------- 0--|
ClassicalGuitarTablature http://classicalguitartablature.blogspot.com/
E|--------------------------------|--------------------------------|
B|---- 0-- 0-- 0---- 0-- 0--------|--------------------------------|
G|---- 1-- 1-- 1 2-- 1-- 1--------|---- 0-- 0-- 0-- 0 2-- 2-- 2 2--|
D|---- 2-- 2-- 2 2-- 2-- 2--------|---- 2-- 2-- 2---- 4-- 4-- 4 4--|
A|------------------ 5 2-- 0------| 3------ 3---- 5 5-- 2-- 5------|
E| 0-------------------------- 3--|---------------------------- 0--|
ClassicalGuitarTablature http://classicalguitartablature.blogspot.com/
E|--------------------------------|--------------------------------|
B|---- 0-- 0-- 0---- 0-- 0--------|-------- 8--------10------------|
G|---- 1-- 1-- 1 2-- 1-- 1--------| 9---------- 9-- 9------ 9-- 7--|
D|---- 2-- 2-- 2 2-- 2-- 2--------|--------------------------------|
A|------------------ 5 2-- 0------|-------- 7----------------------|
E| 0-------------------------- 3--| 0----------10--10 7---- 7--10--|
ClassicalGuitarTablature http://classicalguitartablature.blogspot.com/
E|------ 7------------ 8-- 7------|--------12-- 0-------------- 0--|
B|---------------------------- 8--|----12------------------ 7-- 0--|
G| 9------------ 9-- 9------------| 9------------ 7-- 7------------|
D|--------------------------------|-------------------- 9----------|
A|-------- 7------------------ 7--|---------------------------- 7--|
E| 0---------------- 7 7--10------| 8------ 8----10-- 7 7--10------|
ClassicalGuitarTablature http://classicalguitartablature.blogspot.com/
E|--------------------------------|--------------------------------|
B|--------------------------------|-------- 8--------10------------|
G|--------------------------------| 9---------- 9-- 9------ 9-- 7--|
D|--------------------------------|--------------------------------|
A| 7---------------- 5------------|-------- 7----------------------|
E|-------------------- 7-- 5-- 3--| 0----------10--10 7---- 7--10--|
ClassicalGuitarTablature http://classicalguitartablature.blogspot.com/
E|------ 7------------ 8-- 7------|--------12-- 0-------------- 0--|
B|---------------------------- 8--|----12------------------ 7-- 0--|
G| 9------------ 9-- 9------------| 9------------ 7-- 7------------|
D|--------------------------------|-------------------- 9----------|
A|-------- 7------------------ 7--|---------------------------- 7--|
E| 0---------------- 7 7--10------| 8------ 8----10-- 7 7--10------|
ClassicalGuitarTablature http://classicalguitartablature.blogspot.com/
E|--------------------------------|--------------------------------|
B|--------------------------------|--------------------------------|
G|--------------------------------| 4------------------------------|
D|--------------------------------| 2------------------------------|
A| 7---------------- 5------------|--------------------------------|
E|-------------------- 7-- 5-- 3--| 0------------------------------|
ClassicalGuitarTablature http://classicalguitartablature.blogspot.com/

0 ความคิดเห็น:

แสดงความคิดเห็น