To celebrate the anniversary, I am giving you (finally...) : iPhone LickByNeck !!!!!!

Crazy For You (BASIC)

Madonna's tune fingerstyle chord melody guitar BASIC arrangement played in the key of E.
Crazy For You-Madonna-BASIC Arrangement played in the key of E.
ClassicalGuitarTablature http://classicalguitartablature.blogspot.com/
E|----12--------------12----------|----12--------------12----------|
B|--------12--------------12------|--------12-- 7----------12------|
G|------------11-------------- 9--|---------------- 9---------- 9--|
D|--------------------------------|--------------------------------|
A|--------------------------------| 0------ 0----------------------|
E| 0------ 0------ 0--------------|------------ 7---------- 7------|
ClassicalGuitarTablature http://classicalguitartablature.blogspot.com/
E|----12--------------12----------|----12--------------12----------|
B|--------12--------------12------|--------12-- 7----------12------|
G|------------11-------------- 9--|---------------- 9---------- 9--|
D|--------------------------------|--------------------------------|
A|--------------------------------| 0------ 0----------------------|
E| 0------ 0------ 0------ 0------|------------ 7---------- 7------|
ClassicalGuitarTablature http://classicalguitartablature.blogspot.com/
ClassicalGuitarTablature http://classicalguitartablature.blogspot.com/
E|-------- 4 5-- 7----------------|-------------------- 5------ 4--|
B|------ 5 5-- 5 5----------------|------ 2---- 2-------------- 2--|
G|------ 4 4----------------------|------ 2---- 2-------------- 2--|
D|---- 6-------------- 6------ 6--|-- 2-------- 2------------------|
A|--------------------------------| 0------ 0-- 2---------- 2------|
E| 0------ 0------ 0------ 0------|--------------------------------|
ClassicalGuitarTablature http://classicalguitartablature.blogspot.com/
E| 2------ 0-- 0------------------|--------------------------------|
B| 0------------------------------|---- 5--------------------------|
G|------ 1---------------------- 1|-------- 4-- 6------------------|
D|---- 2-------------- 2------ 2--|-------- 5-- 7------------------|
A|--------------------------------|--------------------------------|
E| 0------ 0------ 0------ 0------| 5------ 5-- 7------------------|
ClassicalGuitarTablature http://classicalguitartablature.blogspot.com/
E|--------------------------------|--------------------------------|
B|------------ 0-- 0-- 0-- 0-- 0--| 2-- 0------ 0------------------|
G|-------- 1------ 1-- 1-- 1-- 1--| 2-- 2------ 2-------------- 2--|
D|---- 2-- 2------ 2-- 2-- 2-- 2--| 2---------- 2---------- 2------|
A|--------------------------------| 0------ 0-- 2------ 2----------|
E| 0------ 0------ 0------ 0------|--------------------------------|
ClassicalGuitarTablature http://classicalguitartablature.blogspot.com/
E|--------------------------------|---- 0-- 0-- 2------------------|
B|------------ 0-- 0-- 0-- 0-- 0--| 2-- 2-- 2-- 2------ 5----------|
G|-------- 1------ 1------ 1-- 1--| 2-- 2-- 2-- 2------ 2----------|
D|---- 2-- 2------ 2------ 2-- 2--| 2------------------ 2------ 2--|
A|--------------------------------| 0------ 0-- 2---------- 2------|
E| 0------ 0------ 0------ 0------|--------------------------------|
ClassicalGuitarTablature http://classicalguitartablature.blogspot.com/
E|---------------- 0-- 4------ 5--|---- 4------ 2-------------- 4--|
B|-------- 0-- 0-- 0-- 0-------- 2|---- 2------ 2------ 5------ 5--|
G|------ 1 1-- 1-- 1-- 1------ 2--|---- 2------ 2------ 2------ 4--|
D|---- 2-- 2-- 2------------------|-------------------- 2----------|
A|--------------------------------| 0---------- 2------------------|
E| 0------ 0------ 0------ 0------|------------------------------ 0|
ClassicalGuitarTablature http://classicalguitartablature.blogspot.com/
E|--------------------------------|--------------------------------|
B|-------- 5-------------- 5------|---- 5--------------------------|
G|------ 4------------ 4----------|-------- 4-- 6------------------|
D|---- 6---------- 6---------- 6--|-------- 5-- 7------------------|
A|--------------------------------|--------------------------------|
E|------------ 0------------------| 5---------- 7------------------|
ClassicalGuitarTablature http://classicalguitartablature.blogspot.com/
E|------ 4 2-- 2 2---- 2-- 2 2----| 2-- 2------ 2------------------|
B|---- 0 0-------- 0------ 0------| 2-- 2------ 2------------------|
G|-- 1-- 1-------- 1--------------| 2-- 2------ 2------------------|
D|--------------------------------|-------------------- 2------ 2--|
A|--------------------------------| 0------ 0-- 2---------- 2------|
E| 0------ 0------ 0------ 0------|--------------------------------|
ClassicalGuitarTablature http://classicalguitartablature.blogspot.com/
E|--------------------------------|---- 0-- 0-- 2------------------|
B|-------- 0-- 0-- 0-- 0-- 0-- 0--| 2-- 2-- 2-- 2------ 5----------|
G|------ 1 1------ 1------ 1------| 2------ 2-- 2------ 2-------- 2|
D|---- 2-- 2------ 2---- 2--------| 2------------------ 2------ 2--|
A|--------------------------------| 0------ 0-- 2---------- 2------|
E| 0------ 0------ 0------ 0------|--------------------------------|
ClassicalGuitarTablature http://classicalguitartablature.blogspot.com/
E|-------------- 0-- 4-------- 5--|---- 4------ 2------ 4------ 4--|
B|-------- 0-- 0-- 0---------- 2--|---- 2------ 4------ 4------ 5--|
G|---- 1-- 1------------------ 2--|---- 2------ 2------ 2------ 4--|
D|---- 2-- 2----------------------|--------------------------------|
A|------------------------------ 0|------------ 3------------------|
E| 0------ 0------ 0------ 0------|--------------------------------|
ClassicalGuitarTablature http://classicalguitartablature.blogspot.com/
E|---------------------------- 4--| 5------------------------------|
B|-- 7 5------------------ 7------| 5-- 8-- 5-- 5---------- 2-- 5--|
G|-- 4 4------------------ 4------| 6-- 6-- 6-- 2------ 4-- 4------|
D|-- 6 6------ 6------ 6-- 6------|---- 5-- 5-- 2------------------|
A| 4------ 4------ 4------ 4------| 0---------- 2---------- 2------|
E|--------------------------------|--------------------------------|
ClassicalGuitarTablature http://classicalguitartablature.blogspot.com/
E|------------ 9------------------|---- 7------ 5 5---- 4----------|
B| 9------12----------12----------|---- 7------ 7-- 4-- 4-- 7 5----|
G| 9---- 9 9---------- 9----------|---- 6------ 6-- 6-- 6-- 6 6----|
D|---- 9-------------- 9------ 9--|------------------------ 4 4----|
A|--------------------------------|--------------------------------|
E| 0------ 0------ 0------ 0------| 5------ 5------ 4------ 4------|
ClassicalGuitarTablature http://classicalguitartablature.blogspot.com/
E|-------- 4----------------------|---- 7-- 7----------------------|
B| 7-- 7-- 7-- 5------ 5----------|---- 7-- 7--10--10-- 9-- 7------|
G| 4-- 4-- 4-- 4------ 4----------|---- 7---------- 7-- 7-- 7-- 9--|
D| 6-- 6------ 6------------------|--------------------------------|
A| 4------ 4------ 4------ 4-- 6--|--------------------------------|
E|--------------------------------| 0------ 0------ 0------ 0------|
ClassicalGuitarTablature http://classicalguitartablature.blogspot.com/
E| 2-- 2-- 4----------------------|--------------------------------|
B| 2-- 2-- 2-- 5-------------- 5--| 4-- 5--------------------------|
G| 2-- 2-- 2-- 2-------------- 2--| 4-- 4-- 4-- 4------ 4----------|
D|------------ 2------ 2------ 2--| 6-- 6---------------------- 6--|
A| 0------ 0------ 0------ 0------|--------------------------------|
E|--------------------------------| 4------ 4------ 4------ 4------|
ClassicalGuitarTablature http://classicalguitartablature.blogspot.com/
E|--------------------------------|-------------------- 2-- 4-- 5--|
B|-------------------- 0------ 0 2|-------- 2-- 4-- 5-- 2-- 2-- 2--|
G| 2-- 1-- 2-- 1-- 2--------------|---- 4---------- 2-- 2-- 2-- 2--|
D| 2-- 2-- 2-- 2-- 2--------------|--------------------------------|
A|--------------------------------| 2------ 2------ 2------ 2------|
E| 2------ 2------ 2------ 2------|--------------------------------|
ClassicalGuitarTablature http://classicalguitartablature.blogspot.com/
E| 7-- 5------ 4------ 7----------|---- 7-- 7-- 5-- 5-- 4----------|
B| 5-- 5------ 5------ 5----------|---- 7-- 7-- 7-- 4-- 4-- 7-- 5--|
G| 4-- 4------ 4------ 4------ 4--|---- 6-- 6-- 6-- 6-- 6----------|
D|--------------------------------|------------------------ 4-- 4--|
A|--------------------------------|--------------------------------|
E| 0------ 0------ 0------ 0------| 5------ 5------ 4------ 4------|
ClassicalGuitarTablature http://classicalguitartablature.blogspot.com/
E| 9------------------------------|---- 7-- 7----------------------|
B| 9------ 9----------------------|---- 7-- 7--10--10-- 9-- 7------|
G| 9--11------ 9------------------|---- 7---------- 7-- 7-- 7-- 9--|
D|-------------------- 9----------|--------------------------------|
A|--------------------------------|--------------------------------|
E| 9------ 9------ 9------ 9--11--| 0------ 0------ 0------ 0------|
ClassicalGuitarTablature http://classicalguitartablature.blogspot.com/
E| 2-- 2-- 4----------------------|--------------------------------|
B| 2-- 2-- 2-- 5-------------- 5--| 4-- 5--------------------------|
G| 2-- 2-- 2-- 2-------------- 2--| 4-- 4-- 4-- 4------ 4----------|
D|------------ 2------ 2------ 2--| 6-- 6---------------------- 6--|
A| 0------ 0------ 0------ 0------|--------------------------------|
E|--------------------------------| 4------ 4------ 4------ 4------|
ClassicalGuitarTablature http://classicalguitartablature.blogspot.com/
E|--------------------------------|------------ 4-- 4--------------|
B|-------------------- 0----------|---------------- 2-- 5-- 5-- 5--|
G| 2-- 1-- 2-- 1-- 2--------------|-------- 2------------------ 4--|
D| 2-- 2-- 2-- 2-- 2---------- 2--|---- 2---------------------- 6--|
A|--------------------------------| 2-------------- 2--------------|
E| 2-------------- 2--------------|--------------------------------|
ClassicalGuitarTablature http://classicalguitartablature.blogspot.com/
E|------ 4-- 5-- 7----------------|---------------------------- 2--|
B|-------- 5---- 5----------------|------------ 2---- 5------------|
G|-------- 4----------------------|---- 2------ 2------------------|
D|---- 6-------------- 6------ 6--|---- 2------ 2------------------|
A|--------------------------------| 0------ 0-- 2---------- 2------|
E| 0------ 0------ 0------ 0------|--------------------------------|
ClassicalGuitarTablature http://classicalguitartablature.blogspot.com/
E|------ 7------------------------| 4------------------------------|
B|---- 5-------------- 7----------| 5---------- 5---------- 5------|
G|---- 4-------------- 4----------|---- 6------ 6---------- 6------|
D|---- 6------ 6-------------- 6--|------------ 7------ 7----------|
A|--------------------------------| 0------ 0----------------------|
E| 0------ 0------ 0------ 0------|------------ 7---------- 7------|
ClassicalGuitarTablature http://classicalguitartablature.blogspot.com/
E|------ 7------------------------| 4------------------------------|
B|---- 5-------------- 7----------| 5---------- 5---------- 5------|
G|---- 4-------------- 4----------|---- 6------ 6---------- 6------|
D|---- 6------ 6-------------- 6--|------------ 7------ 7----------|
A|--------------------------------| 0------ 0----------------------|
E| 0------ 0------ 0------ 0------|------------ 7---------- 7------|
ClassicalGuitarTablature http://classicalguitartablature.blogspot.com/
E|-------------- 0---- 0-- 2------|------------ 5-- 4---------- 0--|
B|------------ 0 0---- 0-- 0-- 5--|---- 5---------- 2-- 5-- 5-- 0--|
G|------------ 1-- 1-- 1-- 1-- 2--|---- 2---------- 2-- 2-- 2-- 1--|
D|---- 2------ 2-------------- 2--|---- 2-------------- 2-- 2------|
A|--------------------------------| 0------ 0------ 2------ 2------|
E| 0------ 0------ 0------ 0------|--------------------------------|
ClassicalGuitarTablature http://classicalguitartablature.blogspot.com/
E|---------------- 0-- 2----------|---- 5-- 4-- 5-- 4---------- 0--|
B|-------- 0-- 0-- 0-- 0------ 5--|-------- 2------ 2-- 5-- 5-- 0--|
G|---- 1-------------- 1------ 2--|---------------- 2------ 2-- 1--|
D|---------------------------- 2--|-------------------- 2----------|
A|--------------------------------| 0------ 0------ 2------ 2------|
E| 0------ 0------ 0------ 0------|--------------------------------|
ClassicalGuitarTablature http://classicalguitartablature.blogspot.com/
E|---------------- 0-- 2----------|---- 5-- 4-- 5-- 4---------- 7--|
B|-------- 0-- 0-- 0-- 0------ 5--|-------- 2------ 2-- 5-- 5-- 5--|
G|---- 1-------------- 1------ 2--|---------------- 2------ 2-- 4--|
D|---------------------------- 2--|-------------------- 2----------|
A|--------------------------------| 0------ 0------ 2------ 2------|
E| 0------ 0------ 0------ 0------|--------------------------------|
ClassicalGuitarTablature http://classicalguitartablature.blogspot.com/
E|-------- 7----------------------| 4---------- 4------------------|
B|-------- 5---------- 7----------| 2---------- 5------ 5-- 5-- 5--|
G|-------------------- 4----------|------------ 2------ 2-- 2-- 2--|
D|---- 6------ 6-------------- 6--|---- 2-------------- 2-- 2-- 2--|
A|--------------------------------| 0------ 0------ 2------ 2------|
E| 0------ 0------ 0------ 0------|--------------------------------|
ClassicalGuitarTablature http://classicalguitartablature.blogspot.com/
E|---- 4-- 7-------------------- 4|------------ 0------------------|
B| 7------ 5---------- 7----------| 2---------- 2------ 0-- 0------|
G| 4------------------ 4----------| 2-- 2------ 2------ 2-- 2-- 4--|
D| 6---------- 6------ 6------ 6--|-------- 2----------------------|
A|--------------------------------| 0------ 0------ 2------ 2------|
E| 0-------------- 0------ 0------|--------------------------------|
ClassicalGuitarTablature http://classicalguitartablature.blogspot.com/
E|------ 7------------------------| 4------------------------------|
B|-------------------- 7----------| 2------------------------------|
G|--------------------------------|-------- 2-- 1------------------|
D|---- 6------ 6-------------- 6--|---- 2---------------- 2------ 2|
A|--------------------------------| 0---------------- 2------------|
E| 0------ 0------ 0------ 0------|--------------------------------|
ClassicalGuitarTablature http://classicalguitartablature.blogspot.com/
E|--------------------------------|--------------------------------|
B|--------------------------------|------ 0------------------------|
G|--------------------------------|---- 1--------------------------|
D|------------------------ 2------| 2------------------------------|
A|--------------------------------|--------------------------------|
E|------------------------------ 0|--------------------------------|
ClassicalGuitarTablature http://classicalguitartablature.blogspot.com/

0 ความคิดเห็น:

แสดงความคิดเห็น