To celebrate the anniversary, I am giving you (finally...) : iPhone LickByNeck !!!!!!

Friday I'm In Love (BASIC)

The Cure's tune fingerstyle chord melody guitar BASIC arrangement played in the key of G. Friday I'm In Love-The Cure-BASIC Arrangement played in the key of G.
ClassicalGuitarTablature http://classicalguitartablature.blogspot.com/
E|--------------------------------|--------------------------------|
B|-------------- 0----------------|-------- 0------ 0--------------|
G|------ 0---- 2 0-- 2---- 0-- 2--| 2------------------ 2-- 0-- 2--|
D|-- 0----------------------------| 0-------------------------- 2--|
A|--------------------------------|--------------------------------|
E|--------------------------------| 3-------------- 3--------------|
ClassicalGuitarTablature http://classicalguitartablature.blogspot.com/
E|--------------------------------|--------------------------------|
B|---- 0------ 0-------------- 0--|-------- 0------ 0---------- 3--|
G|---- 0------------------ 0------| 2------------------ 2-- 0-- 5--|
D|-------------------- 2----------|---------------------------- 4--|
A| 3-------------- 3--------------|--------------------------------|
E|--------------------------------| 3-------------- 3--------------|
ClassicalGuitarTablature http://classicalguitartablature.blogspot.com/
ClassicalGuitarTablature http://classicalguitartablature.blogspot.com/
E|--------------------------------|--------------------------------|
B|---- 3---------- 0-- 0----------|------ 0-------- 0--------------|
G|-------- 5-- 5 0-------- 2-- 2--| 2------------------ 2-- 0------|
D|--------------------------------| 2-------------------------- 2--|
A| 5-------------- 5--------------|--------------------------------|
E|--------------------------------| 0-------------- 0--------------|
ClassicalGuitarTablature http://classicalguitartablature.blogspot.com/
E|--------------------------------|--------------------------------|
B|---------------- 1--------------|--------------------------------|
G|-------- 0---------- 0------ 0--| 0------------------------------|
D|---- 2------ 2---------- 2------|-------- 0------ 0-- 2------ 0--|
A| 3-------------- 3--------------|--------------------------------|
E|--------------------------------| 3-------------- 3--------------|
ClassicalGuitarTablature http://classicalguitartablature.blogspot.com/
E|--------------------------------|-------------------- 0----------|
B|---------------- 3--------------| 3------ 3------ 3---------- 3--|
G|-------- 2---------- 2------ 2--| 0-------------- 0---------- 0--|
D|---- 4------ 4---------- 4------|---- 0------ 0-------------- 2--|
A| 5------------ 5----------------|--------------------------------|
E|--------------------------------| 3-------------- 3--------------|
ClassicalGuitarTablature http://classicalguitartablature.blogspot.com/
E|--------------------------------|---------------------------- 0--|
B|---- 1 1-------------------- 1--| 3-- 3------ 3------ 3------ 3--|
G|------------------------ 0------| 0-- 0------ 0------ 0------ 2--|
D|------------ 2------ 2----------| 0-- 0------ 0------ 0----------|
A| 3-------------- 3--------------|--------------------------------|
E|--------------------------------| 3-------------- 3--------------|
ClassicalGuitarTablature http://classicalguitartablature.blogspot.com/
E|---- 2--------------------------| 0-------------- 0--------------|
B|---- 3------ 3------------------| 0------ 0------ 0-- 3------ 3--|
G|---- 2------ 2---------- 2------|-------------------- 0------ 0--|
D|------------ 4------ 4------ 4--|---- 2------ 2-------------- 2--|
A| 5-------------- 5--------------|--------------------------------|
E|--------------------------------| 0-------------- 0--------------|
ClassicalGuitarTablature http://classicalguitartablature.blogspot.com/
E|--------------------------------|--------------------------------|
B|---- 1------ 1------ 1---- 0----| 0------------------------------|
G|---- 0--------------------------| 0------ 0------ 0-- 0------ 2--|
D|-------- 2----------------------|---- 0------ 0------------------|
A| 3-------------- 3--------------|------------------------------ 5|
E|--------------------------------| 3-------------- 3--------------|
ClassicalGuitarTablature http://classicalguitartablature.blogspot.com/
E|--------------------------------|------------------ 0------------|
B|-------------------- 3----------| 3-- 3------ 3-------------- 3--|
G|-------- 2------------------ 2--| 0-------------------------- 0--|
D|---- 4------ 4---------- 4------| 0------------------------ 2----|
A|---------------- 5--------------|------------------------------ 3|
E|--------------------------------| 3-------------- 3--------------|
ClassicalGuitarTablature http://classicalguitartablature.blogspot.com/
E|--------------------------------|---------------------------- 0--|
B|-- 1-- 1------------------------| 3-- 3------ 3------ 3------ 3--|
G|------------------------ 0------| 0-- 0------ 0------ 0------ 2--|
D|------------ 2------ 2------ 2--| 0-- 0------ 0------ 0----------|
A|---------------- 3--------------|--------------------------------|
E|--------------------------------| 3-------------- 3--------------|
ClassicalGuitarTablature http://classicalguitartablature.blogspot.com/
E|---- 2--------------------------| 0-------------- 0--------------|
B|---- 3------ 3------------------| 0------ 0------ 0-- 3------ 3--|
G|---- 2------ 2---------- 2------|-------------------- 0------ 0--|
D|------------ 4------ 4------ 4--|---- 2------ 2-------------- 2--|
A| 5-------------- 5--------------|--------------------------------|
E|--------------------------------| 0-------------- 0--------------|
ClassicalGuitarTablature http://classicalguitartablature.blogspot.com/
E|--------------------------------|--------------------------------|
B|---- 1------ 1------ 1---- 0----| 0------------------------------|
G|---- 0--------------------------| 0------ 0------ 0-- 0------ 2--|
D|-------- 2----------------------|---- 0------ 0------------------|
A| 3-------------- 3--------------|------------------------------ 5|
E|--------------------------------| 3-------------- 3--------------|
ClassicalGuitarTablature http://classicalguitartablature.blogspot.com/
E|--------------------------------| 3-- 3-- 3---------- 2-- 0------|
B|-------------------- 3----------| 1------ 1------------------ 3--|
G|-------- 2------------------ 2--| 0------------------------------|
D|---- 4------ 4---------- 4------|------------ 2------------------|
A|---------------- 5--------------| 3-------------- 3--------------|
E|--------------------------------|--------------------------------|
ClassicalGuitarTablature http://classicalguitartablature.blogspot.com/
E|--------------------------------| 0-------------- 0--------------|
B|---------------------------- 3--| 0------ 0------ 0-- 3------ 3--|
G|-------- 2-------------- 2------|---------------- 0---------- 0--|
D|---- 4------ 4------ 4----------|---- 2------ 2-------------- 2--|
A| 5-------------- 5--------------|--------------------------------|
E|--------------------------------| 0-------------- 0--------------|
ClassicalGuitarTablature http://classicalguitartablature.blogspot.com/
E|--------------------------------|---------------------------- 0--|
B|---- 1------ 1-------------- 1--| 3------ 3------ 3-- 3------ 3--|
G|---- 0------ 0---------- 0------| 0-------------- 0-- 0------ 2--|
D|------------------ 2------------|---- 0------ 0-- 0-- 0-------- 4|
A| 3------------ 3----------------|--------------------------------|
E|--------------------------------| 3-------------- 3--------------|
ClassicalGuitarTablature http://classicalguitartablature.blogspot.com/
E|---- 2-------------- 3----------|---- 3-- 3-- 3-- 3-- 3-- 3-- 3--|
B|------------ 3------------------|---- 0-- 0-- 0-- 0-- 0-- 0-- 1--|
G|---- 2------ 2------------------|---- 0-- 0-- 0-- 0-- 0-- 0-- 2--|
D|------------------------ 4-- 0--| 2---------------------------- 3|
A| 5-------------- 5--------------|--------------------------------|
E|--------------------------------| 0-------------- 0--------------|
ClassicalGuitarTablature http://classicalguitartablature.blogspot.com/
E|---- 3-- 3 3-- 3-- 3-- 3-- 3----|---- 3-- 3-- 3-- 3-- 3-- 3 3----|
B|---- 1-- 1-- 1 1-- 1------ 3----|---- 3-- 3-- 3-- 3-- 3-- 3 3----|
G|---- 2-- 2 2-- 2---- 2-- 2-- 0--|---- 0-- 0-- 0-- 0-- 0-- 0 2----|
D|--------------------------------|--------------------------------|
A|--------------------------------|--------------------------------|
E| 1-------------- 1--------------| 3-------------- 3--------------|
ClassicalGuitarTablature http://classicalguitartablature.blogspot.com/
E|-------------- 0----------------|-- 3---- 3 3-- 3---- 3 3-- 3----|
B|---- 3-- 3 3-- 3---- 3------ 0--|-- 0---- 0 0-- 0---- 0 0---- 1--|
G|---- 2 2-- 2-- 2---- 2------ 0--|---- 0-- 0-- 0 0---- 0 0---- 2--|
D|---- 4 4-- 4-------- 4------ 2--|--------------------------------|
A| 5-------------- 5--------------|--------------------------------|
E|--------------------------------| 0-------------- 0--------------|
ClassicalGuitarTablature http://classicalguitartablature.blogspot.com/
E|---- 3-- 3-- 3 3---- 3-- 3-- 3--|------------ 3-- 3-- 5----------|
B|---- 1-- 1-- 1 1---- 1-- 1-- 0--|-------- 0------ 0----------12--|
G|---- 2-- 2-- 2-- 2-- 2-- 2-- 0--|---- 0---------- 0----------11--|
D|--------------------------------|----------------------------12--|
A|--------------------------------|--------------------------------|
E| 1-------------- 1--------------| 3-------------- 3--------------|
ClassicalGuitarTablature http://classicalguitartablature.blogspot.com/
E|----------10------------------ 3|---- 3------ 3------ 2------ 2--|
B|----13--------------------------| 3-- 3------ 3-------------- 1--|
G|----11----------------11--------| 0-- 0------ 0-------------- 0--|
D|----12------------12------12----|--------------------------------|
A|--------------------------------|--------------------------------|
E|10------------10----------------| 3-------------- 3--------------|
ClassicalGuitarTablature http://classicalguitartablature.blogspot.com/
E|---- 0------ 0------------------|---------------------------- 0--|
B|---- 1------ 1-------- 1--------| 3-- 3------ 3------ 3------ 3--|
G|---- 0------ 0------ 0------ 0--| 0-- 0------ 0------ 0------ 2--|
D|--------------------------------| 0-- 0------ 0------ 0----------|
A| 3-------------- 3--------------|--------------------------------|
E|--------------------------------| 3-------------- 3--------------|
ClassicalGuitarTablature http://classicalguitartablature.blogspot.com/
E|---- 2--------------------------| 0-------------- 0--------------|
B|---- 3------ 3------------------| 0------ 0------ 0-- 3------ 3--|
G|---- 2------ 2---------- 2------|-------------------- 0------ 0--|
D|------------ 4------ 4------ 4--|---- 2------ 2-------------- 2--|
A| 5-------------- 5--------------|--------------------------------|
E|--------------------------------| 0-------------- 0--------------|
ClassicalGuitarTablature http://classicalguitartablature.blogspot.com/
E|--------------------------------|--------------------------------|
B|---- 1------ 1------ 1---- 0----| 0------------------------------|
G|---- 0--------------------------| 0------ 0------ 0-- 0------ 2--|
D|-------- 2----------------------|---- 0------ 0------------------|
A| 3-------------- 3--------------|------------------------------ 5|
E|--------------------------------| 3-------------- 3--------------|
ClassicalGuitarTablature http://classicalguitartablature.blogspot.com/
E|--------------------------------|--------------------------------|
B|-------------------- 3----------|-------- 0------ 0--------------|
G|-------- 2------------------ 2--| 2------------------ 2-- 0-- 2--|
D|---- 4------ 4---------- 4------| 0-------------------------- 2--|
A|---------------- 5--------------|--------------------------------|
E|--------------------------------| 3-------------- 3--------------|
ClassicalGuitarTablature http://classicalguitartablature.blogspot.com/
E|--------------------------------|--------------------------------|
B|---- 0------ 0-------------- 0--|-------- 0------ 0---------- 3--|
G|---- 0------------------ 0------| 2------------------ 2-- 0-- 5--|
D|-------------------- 2----------|---------------------------- 4--|
A| 3-------------- 3--------------|--------------------------------|
E|--------------------------------| 3-------------- 3--------------|
ClassicalGuitarTablature http://classicalguitartablature.blogspot.com/
E|--------------------------------|--------------------------------|
B|---- 3---------- 0-- 0----------|------ 0-------- 0--------------|
G|-------- 5-- 5 0-------- 2-- 2--| 2------------------ 2-- 0------|
D|--------------------------------| 2-------------------------- 2--|
A| 5-------------- 5--------------|--------------------------------|
E|--------------------------------| 0-------------- 0--------------|
ClassicalGuitarTablature http://classicalguitartablature.blogspot.com/
E|--------------------------------|--------------------------------|
B|---------------- 1--------------|--------------------------------|
G|-------- 0---------- 0------ 0--| 0------------------------------|
D|---- 2------ 2---------- 2------|-------- 0------ 0-- 2------ 0--|
A| 3-------------- 3--------------|--------------------------------|
E|--------------------------------| 3-------------- 3--------------|
ClassicalGuitarTablature http://classicalguitartablature.blogspot.com/
E|--------------------------------|--------------------------------|
B|---------------- 3--------------| 3------------------------------|
G|-------- 2---------- 2------ 2--| 0------------------------------|
D|---- 4------ 4---------- 4------| 0------------------------------|
A| 5------------ 5----------------|--------------------------------|
E|--------------------------------| 3------------------------------|
ClassicalGuitarTablature http://classicalguitartablature.blogspot.com/

0 ความคิดเห็น:

แสดงความคิดเห็น