To celebrate the anniversary, I am giving you (finally...) : iPhone LickByNeck !!!!!!

I Can't Help Myself (Sugar Pie, Honey Bunch) (BASIC)

The Four Tops' tune fingerstyle chord melody guitar BASIC arrangement played in the key of C.

I Can't Help Myself (Sugar Pie, Honey Bunch)-The Four Tops-BASIC Arrangement played in the key of C.
ClassicalGuitarTablature http://classicalguitartablature.blogspot.com/
E|--------------------------------|--------------------------------|
B| 1---------- 1------------------| 1---------- 1---------------- 1|
G| 0---------- 0------------------| 0---------- 0---------------- 0|
D|------------ 2------------------| 2---------- 2------------------|
A| 3------ 0-- 3---------- 0-- 3--| 3------ 0-- 3---------- 0-- 3--|
E|---- 3-------------- 3----------|---- 3-------------- 3----------|
ClassicalGuitarTablature http://classicalguitartablature.blogspot.com/
E|--------------------------------|--------------------------------|
B|------------ 1------------------| 1---------- 1------------------|
G|------------ 0------------------| 0---------- 0------------------|
D| 2---------- 2------------------| 2---------- 2------------------|
A| 3------ 0-- 3---------- 0-- 3--| 3------ 0-- 3---------- 0-- 3--|
E|---- 3-------------- 3----------|---- 3-------------- 3----------|
ClassicalGuitarTablature http://classicalguitartablature.blogspot.com/
ClassicalGuitarTablature http://classicalguitartablature.blogspot.com/
E| 0-- 0-- 0----------------------|---------------- 0-- 3-- 3------|
B| 1-- 1-- 1------ 1-- 3-- 1------|---------------- 1-- 1-- 1-- 8--|
G| 0-- 0-- 0------ 0-- 0-- 0------|---------------- 0-- 0-- 0-- 7--|
D|-------------------- 2-- 2------|--------------------------------|
A| 3------ 0-- 3---------- 0-- 3--| 3------ 0-- 3---------- 0-- 3--|
E|---- 3-------------- 3----------|---- 3-------------- 3----------|
ClassicalGuitarTablature http://classicalguitartablature.blogspot.com/
E|--------------------------------|--------------------------------|
B|-------- 8------ 8--------------|------------------------ 8------|
G|---- 9-- 7------ 7--------------|--------------------------------|
D|--------------------------------|-------------------- 7----------|
A|10------ 7--10---------- 7--10--|10------ 7--10---------- 7--10--|
E|----10--------------10----------|----10--------------10----------|
ClassicalGuitarTablature http://classicalguitartablature.blogspot.com/
E|--------------------------------|--------------------------------|
B| 6------ 3------ 3 5------------|---- 5-- 5-- 3-- 5-- 3 5--------|
G| 5------ 5------ 5--------------|--------------------------------|
D| 3------ 3------ 3--------------|--------------------------------|
A| 5------ 3-- 5---------- 3-- 5--| 5------ 3-- 5-- 5------ 7------|
E|---- 5-------------- 5----------|---- 5--------------------------|
ClassicalGuitarTablature http://classicalguitartablature.blogspot.com/
E|--------------------------------|---------------------------- 0--|
B| 5------------------------------|---------------------------- 1--|
G| 5-- 7-- 5------ 7-- 5----------|---------------- 7-- 9------ 0--|
D| 7---------- 7------------------|---------------- 9--10----------|
A| 8------ 5-- 8---------- 5-- 8--|10------ 7------10--12----------|
E|---- 8-------------- 8----------|----10--------------------------|
ClassicalGuitarTablature http://classicalguitartablature.blogspot.com/
E|---- 0---------------------- 0--|-- 0---------- 0---- 3-- 3-- 3--|
B|---- 1-- 3-- 1-- 1--------------|------ 3-- 1---------------- 1--|
G|---- 0-- 0-- 0-- 0--------------|---------------------------- 0--|
D|-------- 2-- 2-- 2--------------|--------------------------------|
A| 3------ 0-- 3---------- 0-- 3--| 3------ 0-- 3---------- 0-- 3--|
E|---- 3-------------- 3----------|---- 3-------------- 3----------|
ClassicalGuitarTablature http://classicalguitartablature.blogspot.com/
E|--------------------------------|--------------------------------|
B|------------------ 8-- 8---- 8--|--10---- 8-- 8------ 8---- 7----|
G|---------------- 9--------------|--------------------------------|
D|--------------------------------|--------------------------------|
A|10------ 7--10---------- 7--10--|10------ 7--10---------- 7--10--|
E|----10--------------10----------|----10--------------10----------|
ClassicalGuitarTablature http://classicalguitartablature.blogspot.com/
E|--------------------------------|--------------------------------|
B| 6-- 3-- 3-- 3 5---- 3----------|-- 3---- 5------ 5-- 3-- 5------|
G| 5-- 5------------------ 5------|--------------------------------|
D| 3------------------------------|--------------------------------|
A| 5------ 3-- 5---------- 3-- 5--| 5------ 3-- 5-- 5------ 7------|
E|---- 5-------------- 5----------|---- 5--------------------------|
ClassicalGuitarTablature http://classicalguitartablature.blogspot.com/
E|--------------------------------|---------------------------- 0--|
B| 5------------------------------|---------------------------- 1--|
G| 5-- 7-- 5-- 5---------- 5------|-------- 7------ 7-- 9------ 0--|
D| 7-- 7-- 7-- 7---------- 7------|-------- 9------ 9--10----------|
A| 8------ 5-- 8---------- 5-- 8--|10------ 7------10--12----------|
E|---- 8-------------- 8----------|----10--------------------------|
ClassicalGuitarTablature http://classicalguitartablature.blogspot.com/
E|---- 0--------------------------| 0-- 0-------------- 0-- 3-- 0--|
B|---- 1-- 3-- 1-- 3-- 1------ 1--| 1-- 1------ 3 1-------------- 8|
G|---- 0-- 0-- 0-- 0-- 0----------| 0-- 0------------------------ 7|
D|---------------- 2-- 2----------|------------ 2------------------|
A| 3------ 0-- 3---------- 0-- 3--| 3------ 0-- 3---------- 0-- 3--|
E|---- 3-------------- 3----------|---- 3-------------- 3----------|
ClassicalGuitarTablature http://classicalguitartablature.blogspot.com/
E|--------------------------------|--------------------------------|
B|---- 8------ 8------------------|------------ 8-------- 8---- 7--|
G|-------- 9-- 7------------------|--------------------------------|
D| 9---------- 9------------------|-------- 7----------------------|
A|10------ 7--10---------- 7--10--|10------ 7--10---------- 7--10--|
E|----10--------------10----------|----10--------------10----------|
ClassicalGuitarTablature http://classicalguitartablature.blogspot.com/
E|--------------------------------|--------------------------------|
B| 6-- 3-- 3-- 3 5 3--------------|---- 5 5---- 5-- 5--------------|
G| 5-- 5-- 5-- 5------ 5----------|-------------------- 7-- 5------|
D| 3-- 3-- 3-- 3------------------|---------------------------- 7--|
A| 5------ 3-- 5---------- 3-- 5--| 5------ 3-- 5-- 5------ 7------|
E|---- 5-------------- 5----------|---- 5--------------------------|
ClassicalGuitarTablature http://classicalguitartablature.blogspot.com/
E|--------------------------------|--------------------------------|
B| 5------------------------------|--------------------------------|
G| 5-- 7 5---- 7-- 5--------------|-------- 7------ 7-- 9----------|
D| 7-- 7------ 7------------------|-------- 9------ 9--10----------|
A| 8------ 5-- 8---------- 5-- 8--|10------ 7------10--12----------|
E|---- 8-------------- 8----------|----10--------------------------|
ClassicalGuitarTablature http://classicalguitartablature.blogspot.com/
E| 0-- 0-- 0----------------------|---------------- 0-- 3-- 3------|
B| 1-- 1-- 1------ 1-- 3-- 1------|---------------- 1-- 1-- 1-- 8--|
G| 0-- 0-- 0------ 0-- 0-- 0------|---------------- 0-- 0-- 0-- 7--|
D|-------------------- 2-- 2------|--------------------------------|
A| 3------ 0-- 3---------- 0-- 3--| 3------ 0-- 3---------- 0-- 3--|
E|---- 3-------------- 3----------|---- 3-------------- 3----------|
ClassicalGuitarTablature http://classicalguitartablature.blogspot.com/
E|--------------------------------|--------------------------------|
B|-------- 8------ 8--------------|------------------------ 8------|
G|---- 9-- 7------ 7--------------|--------------------------------|
D|--------------------------------|-------------------- 7----------|
A|10------ 7--10---------- 7--10--|10------ 7--10---------- 7--10--|
E|----10--------------10----------|----10--------------10----------|
ClassicalGuitarTablature http://classicalguitartablature.blogspot.com/
E|--------------------------------|--------------------------------|
B| 6------ 3------ 3 5------------|---- 5-- 5-- 3-- 5-- 3 5--------|
G| 5------ 5------ 5--------------|--------------------------------|
D| 3------ 3------ 3--------------|--------------------------------|
A| 5------ 3-- 5---------- 3-- 5--| 5------ 3-- 5-- 5------ 7------|
E|---- 5-------------- 5----------|---- 5--------------------------|
ClassicalGuitarTablature http://classicalguitartablature.blogspot.com/
E|--------------------------------|--------------------------------|
B| 5------------------------------|--------------------------------|
G| 5-- 7-- 5------ 7-- 5----------|---------------- 7-- 9----------|
D| 7---------- 7------------------|---------------- 9--10----------|
A| 8------ 5-- 8---------- 5-- 8--|10------ 7------10--12----------|
E|---- 8-------------- 8----------|----10--------------------------|
ClassicalGuitarTablature http://classicalguitartablature.blogspot.com/
E|--------------------------------|--------------------------------|
B| 1---------- 1---------------- 1|------------ 1------------------|
G| 0---------- 0---------------- 0|------------ 0------------------|
D| 2---------- 2------------------| 2---------- 2------------------|
A| 3------ 0-- 3---------- 0-- 3--| 3------ 0-- 3---------- 0-- 3--|
E|---- 3-------------- 3----------|---- 3-------------- 3----------|
ClassicalGuitarTablature http://classicalguitartablature.blogspot.com/
E|--------------------------------|--------------------------------|
B| 1---------- 1------------------| 1------------------------------|
G| 0---------- 0------------------| 0------------------------------|
D| 2---------- 2------------------| 2------------------------------|
A| 3------ 0-- 3---------- 0-- 3--| 3------------------------------|
E|---- 3-------------- 3----------|--------------------------------|
ClassicalGuitarTablature http://classicalguitartablature.blogspot.com/

0 ความคิดเห็น:

แสดงความคิดเห็น