To celebrate the anniversary, I am giving you (finally...) : iPhone LickByNeck !!!!!!

Patience (BASIC)

Guns N Roses' tune fingerstyle chord melody guitar BASIC arrangement played in the key of G.
Patience-Guns N Roses-BASIC Arrangement played in the key of G.
ClassicalGuitarTablature http://classicalguitartablature.blogspot.com/
E|--------------------------------| 7---- 7-- 5 3-------- 5-- 7----|
B| 1------ 1------ 3 1-- 0-- 1----| 0------ 0----------------------|
G| 0------ 0------ 0 0-- 0-- 0 0 0|-------------------- 0-------- 6|
D| 2------ 2------ 2 2-- 2-- 2----|---- 0------------ 0------------|
A| 3---------- 3------------------|------------------------------ 0|
E|------------------------------ 3|---------------- 3--------------|
ClassicalGuitarTablature http://classicalguitartablature.blogspot.com/
E| 5-------------------- 7 5---- 5|-------- 5----------------------|
B| 5 8 5-------- 5------------ 8--|---------- 7-- 5---------- 5----|
G|-- 6 6------ 6-------- 6--------|------ 7---------- 7---- 7-- 7--|
D|-- 5 5---- 5-------- 5----------|---- 7---------------- 7--------|
A|---------------- 0--------------| 5-------------- 5--------------|
E|--------------------------------|--------------------------------|
ClassicalGuitarTablature http://classicalguitartablature.blogspot.com/
ClassicalGuitarTablature http://classicalguitartablature.blogspot.com/
E|---------------- 7--10 7--------|---- 7 5 7 5 3 3----------------|
B|-- 8 8-- 810 8-- 8--------10 8--|---- 0 0---------------- 0------|
G|-- 9 9-- 9----------------------|---------------------- 0-- 0----|
D|--1010--10----------------------|-- 0---------------- 0------ 0--|
A|--------------------------------|--------------------------------|
E| 8------------ 8----------------| 3-------------- 3--------------|
ClassicalGuitarTablature http://classicalguitartablature.blogspot.com/
E|---- 5 5------ 5------ 5---- 7--| 2-------- 0--------------------|
B|---- 5 8-- 8 5---- 8 5 5--------| 3------ 3---- 3-------- 3------|
G|------ 6-- 6------ 6 6----------| 2---- 2------------ 2---- 2----|
D|-- 5----------------------------|---- 4------------ 4-------- 4--|
A| 0-------------- 0--------------| 5-------------- 5--------------|
E|--------------------------------|--------------------------------|
ClassicalGuitarTablature http://classicalguitartablature.blogspot.com/
E|---- 3 5-- 3 7---- 5 3 3--------|---- 8 7 5---- 0------ 3 5-- 0--|
B|-- 5-------- 0---- 0 0 0------ 0|---- 5 5 5-- 8------ 0----------|
G| 5---------- 0---- 0 0 0---- 0--|------ 5 5-- 0---- 0------------|
D|-------------------------- 0----|-- 5----------------------------|
A| 3------------------------------|--------------------------------|
E|---------------- 3--------------| 8-------------- 0--------------|
ClassicalGuitarTablature http://classicalguitartablature.blogspot.com/
E|-------- 0 3-- 0------------ 3--|---------------- 5--------------|
B|---- 1-- 1---- 0-- 3---- 3------| 7---- 7 8---- 8----------------|
G|---- 0---------------- 0--------| 7-- 7------ 7------------------|
D|-- 2-- 2------------ 0---- 0----|-- 7------ 7--------------------|
A| 3------------------------------| 5------------------ 3 4 5------|
E|---------------- 3--------------|--------------------------------|
ClassicalGuitarTablature http://classicalguitartablature.blogspot.com/
E|--------------------------------|--------------------------------|
B|------------------ 0------------|---- 0 0-------------- 0--------|
G|---- 0 0 0 2-- 0 2 0-- 0-- 2 0--|---- 0 0 2 0 0------ 0---- 0----|
D|-- 2 2 2 2 2-- 2 2------ 2------|-- 0 0 0 0-------- 0-------- 0--|
A| 3-------------- 3--------------|--------------------------------|
E|--------------------------------| 3------------ 3----------------|
ClassicalGuitarTablature http://classicalguitartablature.blogspot.com/
E|--------------------------------|--------------------------------|
B|-------------- 0----------------|---------- 3------------ 3------|
G|---- 2 2 2 2------ 2-- 2-- 2----|------ 2------ 2---- 2---- 2----|
D|-- 2 2 2 2 2------ 2-- 2-- 2-- 4|-- 2 0---- 4------ 4-------- 4--|
A| 0-------------- 0--------------| 5-------------- 5--------------|
E|--------------------------------|--------------------------------|
ClassicalGuitarTablature http://classicalguitartablature.blogspot.com/
E|--------------------------------|--------------------------------|
B|------------------ 0------------|---- 0 0-------------- 0--------|
G|---- 0 0 0 2-- 0 2 0-- 0-- 2 0--|---- 0 0 2 0 0------ 0---- 0----|
D|-- 2 2 2 2 2-- 2 2------ 2------|-- 0 0 0 0-------- 0-------- 0--|
A| 3-------------- 3--------------|--------------------------------|
E|--------------------------------| 3------------ 3----------------|
ClassicalGuitarTablature http://classicalguitartablature.blogspot.com/
E|--------------------------------|--------------------------------|
B|-------------- 0----------------|---------- 3------------ 3------|
G|---- 2 2 2 2------ 2-- 2-- 2----|------ 2------ 2---- 2---- 2----|
D|-- 2 2 2 2 2------ 2-- 2-- 2-- 4|-- 2 0---- 4------ 4-------- 4--|
A| 0-------------- 0--------------| 5-------------- 5--------------|
E|--------------------------------|--------------------------------|
ClassicalGuitarTablature http://classicalguitartablature.blogspot.com/
E|--------------------------------|--------------------------------|
B|---- 1 1 1 3------------------ 1|---- 1-- 1 0-------------- 0----|
G|---- 0 0 0---- 0-- 0-- 0-- 0----| 0-- 0-- 0------------ 0------ 0|
D|-- 2-- 2 2---- 0------------ 2--|-- 2-- 2 2---- 2-- 2-------- 2--|
A| 3------ 3----------------------| 3------ 3----------------------|
E|---------------- 3------ 3------|---------------- 0------ 0------|
ClassicalGuitarTablature http://classicalguitartablature.blogspot.com/
E|--------------------------------|--------------------------------|
B| 1 1-- 1-- 1-- 1-- 0---------- 0|--------------------------------|
G| 0 0-- 0-- 0-- 0-- 0-- 2-- 0-- 2|-- 2-------- 2------ 2----------|
D| 2 2-- 2-- 2-- 0-- 0---------- 4|---- 4---- 4-- 4-- 4-- 4-- 4----|
A| 3------ 3----------------------| 5---- 5-------- 5------ 5-- 0 2|
E|---------------- 3------ 3------|--------------------------------|
ClassicalGuitarTablature http://classicalguitartablature.blogspot.com/
E|--------------------------------|--------------------------------|
B|---- 1 1 1 3------------------ 1|---- 1-- 1 0-------------- 0----|
G|---- 0 0 0---- 0-- 0-- 0-- 0----| 0-- 0-- 0------------ 0------ 0|
D|-- 2-- 2 2---- 0------------ 2--|-- 2-- 2 2---- 2-- 2-------- 2--|
A| 3------ 3----------------------| 3------ 3----------------------|
E|---------------- 3------ 3------|---------------- 0------ 0------|
ClassicalGuitarTablature http://classicalguitartablature.blogspot.com/
E|--------------------------------|--------------------------------|
B| 1 1-- 1-- 1-- 1-- 0---------- 0|---------------------------- 0--|
G| 0 0-- 0-- 0-- 0-- 0-- 2-- 0-- 2| 2---------- 2------ 2---- 2----|
D| 2 2-- 2-- 2-- 0-- 0---------- 4|---- 4-- 4---- 4-- 4-- 4 4------|
A| 3------ 3----------------------| 5---- 5-------- 5------ 5------|
E|---------------- 3------ 3------|--------------------------------|
ClassicalGuitarTablature http://classicalguitartablature.blogspot.com/
E|--------------------------------|--------------------------------|
B|---------- 3------------ 3---- 3|-------- 3---- 3-- 3---- 3------|
G|------ 2------ 2---- 2---- 2-- 2|-------- 2---- 2-- 2---- 2------|
D| 4 2 0------------ 4-------- 4 4|-------- 4---- 4-- 4---- 4------|
A| 5-------------- 5--------------| 5------------------ 5------ 5--|
E|--------------------------------|--------------------------------|
ClassicalGuitarTablature http://classicalguitartablature.blogspot.com/
E|--------------------------------|------------------------------ 2|
B| 0------ 0---- 0-- 0-- 0--------| 3------ 3-- 3---- 3 0-- 3 0-- 3|
G| 0------ 0---- 0-- 0-- 0--------| 2------ 2-- 2---- 2 2-- 2 2-- 0|
D| 0------ 0---- 0-- 0-- 0--------| 4------ 4-------- 4 4-- 4 4----|
A|--------------------------------| 5-------------- 5--------------|
E| 3---------------- 3-------- 3--|--------------------------------|
ClassicalGuitarTablature http://classicalguitartablature.blogspot.com/
E|-- 0------------ 2---- 2-- 0 2--| 0---------------------------- 2|
B|-- 3 3------ 3-- 3---- 3---- 3--| 3 3-------------- 3 0 3-- 0-- 3|
G|-- 0 0---- 0-------- 0 0------ 2| 2 2------ 2------ 2 2 2-- 2-- 0|
D|-------- 0-------- 0------------|-- 4-- 4------ 4-- 4 4 4-- 4----|
A|------------------------------ 5|-------------- 5----------------|
E| 3-------------- 3--------------|--------------------------------|
ClassicalGuitarTablature http://classicalguitartablature.blogspot.com/
E|-- 0------------ 2---- 2-- 0----|-- 7 5------------ 5------------|
B|-- 3 3------ 3-- 3---- 3------ 7| 5-- 5 7-- 7-- 7 7---- 7--------|
G|-- 0 0---- 0-------- 0 0------ 7|------ 7-- 7-- 7 7------ 7------|
D|-------- 0-------- 0---------- 7|------ 7-- 7-- 7-- 7-------- 7--|
A|------------------------------ 5|-------------- 5----------------|
E| 3-------------- 3--------------|--------------------------------|
ClassicalGuitarTablature http://classicalguitartablature.blogspot.com/
E|---- 2 0 2-- 2 2-- 2 5 2--------|---- 7 5---------- 5------------|
B|---- 0 0 0-- 0 0-- 0 0 0------ 0|---- 7 7 7 7-- 7-- 7-- 7---- 7--|
G|---- 0 0 0-- 0 0-- 0 0 0---- 0--|-- 7-- 7 7 7-- 7-- 7------ 7-- 7|
D|-- 0---------------------- 0----|--------------------------------|
A|--------------------------------| 5-------------- 5--------------|
E| 3-------------- 3--------------|--------------------------------|
ClassicalGuitarTablature http://classicalguitartablature.blogspot.com/
E|---- 2 0 2-- 2 2-- 2 5 2--------|-------------------- 5------ 5 2|
B|---- 0 0 0-- 0 0-- 0 0 0------ 0|---- 7 5 7-- 7 7-- 7 7 7-- 7-- 0|
G|---- 0 0 0-- 0 0-- 0 0 0---- 0--|---- 7 7 7-- 7 7-- 7 7 7------ 0|
D|-- 0---------------------- 0----|-- 7 7 7 7-- 7 7-- 7-- 7--------|
A|--------------------------------| 5-------------- 5--------------|
E| 3-------------- 3--------------|--------------------------------|
ClassicalGuitarTablature http://classicalguitartablature.blogspot.com/
E|-- 0-------------- 7-- 7 7 7 7--| 7-- 5--------------------10-- 7|
B|-- 0 3------ 3---- 0-- 0 0 0 0--| 5-- 5------ 5------ 8---- 8-- 0|
G|---------- 0------ 0-- 0 0-- 0--| 5-------- 5-------- 9---- 9-- 0|
D|------ 0------ 0----------------|-- 5------ 5------10------------|
A|--------------------------------|--------------------------------|
E| 3-------------- 3------ 3------| 8------ 8------ 8------ 8------|
ClassicalGuitarTablature http://classicalguitartablature.blogspot.com/
E|-- 5 3------------ 7 7 7-- 7 7--| 7------------------------------|
B|-- 0 0------------ 0 0 0-- 0 0--|1010----------------------------|
G|-- 0-------- 0---- 0 0 0-- 0 0--| 7 7----------------------------|
D|------ 0-- 0--------------------|-- 7----------------------------|
A|--------------------------------|--------------------------------|
E| 3------ 3------ 3------ 3----10|--------------------------------|
ClassicalGuitarTablature http://classicalguitartablature.blogspot.com/

0 ความคิดเห็น:

แสดงความคิดเห็น