To celebrate the anniversary, I am giving you (finally...) : iPhone LickByNeck !!!!!!

Release Me (BASIC)

Engelbert Humperdinck's tune fingerstyle chord melody guitar BASIC arrangement played in the key of C.

Release Me-Engelbert Humperdinck-Bob Dylan-BASIC Arrangement played in the key of C.
http://classicalguitartablature.blogspot.com/
E|---------------------- 3|------------------------|
B|------ 1----------------|-------- 1--------------|
G|------------ 0------ 0--|------------ 0------ 0--|
D|---- 2---------- 2------|---- 2---------- 2------|
A| 3----------------------|------------------------|
E|------------------------|------------------------|
http://classicalguitartablature.blogspot.com/
E| 1----------------------|---------------------- 3|
B| 0----------------------|------------------------|
G|-------- 0---------- 0--|-------- 0---------- 0--|
D|---- 0---------- 0------|---- 0---------- 0------|
A|------------------------| 0---------- 2-------- 3|
E| 3---------- 3----------|------------------------|
http://classicalguitartablature.blogspot.com/
http://classicalguitartablature.blogspot.com/
E|------------------------|---------------- 2---- 1|
B|------------ 1----------|------------ 1-------- 1|
G|-------- 0------ 0------|-------- 0------------ 0|
D|---- 2-------------- 2--|---- 2-------- 0--------|
A|------------------------|------------------------|
E|------------------------| 3----------------------|
http://classicalguitartablature.blogspot.com/
E|------ 0----------------| 3----------------------|
B|------ 1---------- 1----| 3---------- 6----------|
G|---------------- 0------|-------- 3-- 3---- 3----|
D|------------ 2----------| 3-- 3---------- 5------|
A|------------------------|------------ 3----------|
E| 0----------------------| 3----------------------|
http://classicalguitartablature.blogspot.com/
E|------------------------|------------------------|
B|------------ 1----------|------------------------|
G| 2------ 2------ 2------|-------- 2---------- 2--|
D|---- 3-------------- 3--|---- 3---------- 3------|
A|------------------------| 0---------- 3----------|
E| 1----------------------|------------------------|
http://classicalguitartablature.blogspot.com/
E|------------------------|------------------------|
B|------------ 1----------|------------ 1----------|
G|-------- 2------ 2------|-------- 2------ 2------|
D|---- 3-------------- 3--|---- 3-------------- 3--|
A|------------------------| 3----------------------|
E| 1----------------------|------------------------|
http://classicalguitartablature.blogspot.com/
E|------------------------|------------------------|
B| 0---------- 0----------|---------------- 0------|
G|-------- 0---------- 0--|-------- 0---------- 2--|
D|---- 0---------- 0------|---- 0------------------|
A|------------------------| 2---------- 5----------|
E| 3----------------------|------------------------|
http://classicalguitartablature.blogspot.com/
E|------------ 1----------|-------------- 1-- 3----|
B|------------------------|------------ 0----------|
G| 0---- 0------------ 0--|-------- 0--------------|
D|---- 0---------- 0------|---- 0------------------|
A|------------------------| 2----------------------|
E| 3----------------------|------------------------|
http://classicalguitartablature.blogspot.com/
E| 0----------------------|---------- 0------------|
B| 1-------------------- 1|------------------------|
G|-------- 0 0-------- 0--|-------- 0---------- 0--|
D|---- 2---------- 2------|-- 2------------ 2------|
A| 3----------------------|------------------------|
E|------------------------| 0----------------------|
http://classicalguitartablature.blogspot.com/
E|------------ 3----------|---------------- 3---- 3|
B| 3----------------------|------------------------|
G| 0---- 0----------------|-------- 0--------------|
D|---- 0---------- 0------|---- 0-------------- 0--|
A|------------------------| 0---------- 2-------- 3|
E| 3------------------ 3--|------------------------|
http://classicalguitartablature.blogspot.com/
E|------------------------|---------------- 2---- 1|
B|------------ 1----------|------------ 1-------- 1|
G|-------- 0------ 0------|-------- 0------------ 0|
D|---- 2-------------- 2--|---- 2-------- 0--------|
A|------------------------|------------------------|
E|------------------------| 3----------------------|
http://classicalguitartablature.blogspot.com/
E|------ 0----------------| 3----------------------|
B|------ 1---------- 1----| 3---------- 6----------|
G|---------------- 0------|-------- 3-- 3---- 3----|
D|------------ 2----------| 3-- 3---------- 5------|
A|------------------------|------------ 3----------|
E| 0----------------------| 3----------------------|
http://classicalguitartablature.blogspot.com/
E|------------------------|------------------------|
B|------------ 1----------|------------------------|
G| 2------ 2------ 2------|-------- 2---------- 2--|
D|---- 3-------------- 3--|---- 3---------- 3------|
A|------------------------| 0---------- 3----------|
E| 1----------------------|------------------------|
http://classicalguitartablature.blogspot.com/
E|------------------------|------------ 5----------|
B|------------ 1----------|---------------- 6------|
G|-------- 2------ 2------|-------- 5---------- 5--|
D|---- 3-------------- 3--|-- 7--------------------|
A|------------------------|------------------------|
E| 1----------------------| 5----------------------|
http://classicalguitartablature.blogspot.com/
E| 3------ 0--------------|-------------------- 0--|
B| 1------------------ 1--|------------ 1-- 3------|
G|---------------- 0------|-------- 0--------------|
D|------------ 2----------|---- 2------------------|
A| 3----------------------|------------------------|
E|------------------------| 0----------------------|
http://classicalguitartablature.blogspot.com/
E|------------------------|------------------------|
B|------------ 3----------|---------------- 0-- 3--|
G| 0------ 0------ 0------|-------- 0--------------|
D|---- 0-------------- 0--|---- 0------ 0----------|
A|------------------------| 2----------------------|
E| 3----------------------|------------------------|
http://classicalguitartablature.blogspot.com/
E|------------------------|------------------------|
B| 1---------- 1----------|------------------------|
G|-------- 0---- 0--------|-------- 0-------- 0----|
D|---- 2-------------- 2--|---- 2---------- 2------|
A| 3----------------------|------------------------|
E|------------------------| 0---------- 3----------|
http://classicalguitartablature.blogspot.com/
E|------------------------|---------- 9------------|
B|------------ 2----------|---------------- 6------|
G|-------- 4------ 4------|-------- 6---------- 6--|
D|---- 3-------------- 3--|---- 6------------------|
A| 4----------------------| 8----------------------|
E|------------------------|------------------------|
http://classicalguitartablature.blogspot.com/
E| 9-------------- 9------|---------------- 8---- 7|
B|---- 7------ 7------ 7--|-------- 7------------ 7|
G|-------- 6--------------|---- 6------ 6----------|
D|------------------------|------------------------|
A| 9----------------------|------------------------|
E|------------------------| 9-------------------- 6|
http://classicalguitartablature.blogspot.com/
E|------ 6---------- 6-- 9|------------------------|
B|------ 7-------- 7------|-------- 9--12----------|
G|---------- 6------------|-- 9-------- 9------ 9--|
D|------------------------|----------------11------|
A|------------------------|------------ 9----------|
E|------------------------| 9----------------------|
http://classicalguitartablature.blogspot.com/
E|------------------------|------------------------|
B| 4---------- 4----------|------------------------|
G| 4------ 4------ 4------|-------- 4------ 4------|
D|---- 4-------------- 4--|---- 4------ 4------ 4--|
A| 2----------------------|------------------------|
E|------------------------| 2----------------------|
http://classicalguitartablature.blogspot.com/
E|------------------------|------------------------|
B| 4-------- 4------------|------------ 4----------|
G| 4------ 4-------- 4----|-------- 4------ 4------|
D|---- 4-------- 4--------|---- 4-------------- 4--|
A| 2----------------------|------------------------|
E|------------------------| 2----------------------|
http://classicalguitartablature.blogspot.com/
E| 1----------------------|-------------- 1--------|
B| 2---------- 2----------|------------ 2------ 4--|
G|-------- 1------ 1------|-------- 1--------------|
D|---- 3-------------- 3--|---- 3------------------|
A| 4----------------------|------------------------|
E|------------------------| 1----------------------|
http://classicalguitartablature.blogspot.com/
E|------------ 7----------|-------------------- 9--|
B|------------------------|------------ 9--12------|
G| 6------ 6---------- 6--|--------10--------------|
D|---- 6---------- 6------|----11------------------|
A|------------------------|------------------------|
E| 4----------------------| 9----------------------|
http://classicalguitartablature.blogspot.com/
E| 6----------------------|------------ 6----------|
B| 7------ 7--------------| 7----------------------|
G| 6---------- 6------ 6--|-------- 6---------- 6--|
D|---- 8---------- 8------|---- 8---------- 8------|
A| 9----------------------|------------------------|
E|------------------------| 6----------------------|
http://classicalguitartablature.blogspot.com/
E|------------ 9----------|------------------------|
B| 9----------------------|------------------------|
G|10------10--------------|--------10----------10--|
D|----11----------11------|----11----------11------|
A|------------------------|------------------------|
E| 9------------------ 9--|11----------13----------|
http://classicalguitartablature.blogspot.com/
E| 9-------------- 9------|---------------- 8---- 7|
B|---- 7------ 7------ 7--|-------- 7------------ 7|
G|-------- 6--------------|---- 6------ 6----------|
D|------------------------|------------------------|
A| 9----------------------|------------------------|
E|------------------------| 9-------------------- 6|
http://classicalguitartablature.blogspot.com/
E|------ 6---------- 6-- 9|------------------------|
B|------ 7-------- 7------|-------- 9--12----------|
G|---------- 6------------|-- 9-------- 9------ 9--|
D|------------------------|----------------11------|
A|------------------------|------------ 9----------|
E|------------------------| 9----------------------|
http://classicalguitartablature.blogspot.com/
E|------------------------|------------------------|
B| 4---------- 4----------|------------------------|
G| 4------ 4------ 4------|-------- 4---------- 8--|
D|---- 4-------------- 4--|---- 4---------- 9------|
A|------------------------| 6---------- 9----------|
E| 7----------------------|------------------------|
http://classicalguitartablature.blogspot.com/
E|------------------------|----------11------------|
B|------------ 7----------|----------------12------|
G|-------- 8------ 8------|------11------------11--|
D|---- 9-------------- 9--|----13------------------|
A|------------------------|------------------------|
E| 7----------------------|11----------------------|
http://classicalguitartablature.blogspot.com/
E| 9------ 6-------- 6----|-------------------- 6--|
B| 7------ 7------ 7------|------------ 7-- 9------|
G| 6---------- 6----------|------ 6----------------|
D|------------------------|---- 8------------------|
A| 9----------------------|------------------------|
E|------------------------| 6----------------------|
http://classicalguitartablature.blogspot.com/
E|------------------------|------------------------|
B|------------ 6----------|---------------- 6-- 9--|
G| 6------ 6------ 6------|-------- 6--------------|
D|---- 6-------------- 6--|---- 6------ 6----------|
A|------------------------| 8----------------------|
E| 9----------------------|------------------------|
http://classicalguitartablature.blogspot.com/
E|---------------------- 9|------------ 9----------|
B| 7---------- 7----------|------------------------|
G| 6------ 6------ 6------|-------- 6---------- 6--|
D|---- 8-------------- 8--|-- 8------------ 8------|
A| 9----------------------|------------------------|
E|------------------------| 6----------------------|
http://classicalguitartablature.blogspot.com/
E|11----------------------|------------------------|
B| 7-- 7------------------| 7---------- 7----------|
G| 8------ 8------ 8------| 4------ 4---------- 4--|
D|------------ 9------ 9--|---- 4---------- 4------|
A|------------------------| 6----------------------|
E| 7----------------------|------------------------|
http://classicalguitartablature.blogspot.com/
E| 6----------------------| 6------------ 4--------|
B| 7---------- 7----------|-------------- 6--------|
G|-------- 6------ 6------|---------- 6------------|
D|---- 8-------------- 8--|------ 8------------ 6--|
A| 9----------------------| 9------------ 4--------|
E|------------------------|------------------------|
http://classicalguitartablature.blogspot.com/
E|---------------- 2------|------------------------|
B|---------------- 2------|------------------------|
G|-- 6---------- 3--------| 3----------------------|
D|-------------------- 4--|------------------------|
A|------------------------|------------------------|
E|------------ 2----------|------------------------|
http://classicalguitartablature.blogspot.com/

0 ความคิดเห็น:

แสดงความคิดเห็น