To celebrate the anniversary, I am giving you (finally...) : iPhone LickByNeck !!!!!!

Rocky Theme - Gonna Fly Now (BASIC)

Bill Conti's tune fingerstyle chord melody guitar BASIC arrangement played in the key of Am.
Rocky Theme-Gonna Fly Now-Bill Conti-BASIC Arrangement played in the key of Am.
http://classicalguitartablature.blogspot.com/
E|--------------------------------|--------------------------------|
B|--------------------------------|---------------- 5---------- 5--|
G|---------------------------- 5--| 5-- 5 5 5-- 5 5---- 5-- 5------|
D|--------------------------------|--------------------------------|
A|--------------------------------|--------------------------------|
E|--------------------------------|--------------------------------|
http://classicalguitartablature.blogspot.com/
E|---------------- 3--------------| 0-- 0 0 0-- 0 0-- 0 0------ 0 0|
B| 5-- 5 5 5-- 5 5 5 5 5-- 5------| 3-- 3 3 3-- 3 3-- 3 3------ 3 3|
G| 5-- 5 5 5-- 5 5-- 5 5-- 5------| 4-- 4 4 4-- 4 4-- 4 4------ 4 4|
D|--------------------------------|--------------------------------|
A|--------------------------------|--------------------------------|
E|--------------------------------|---------------------- 1--------|
http://classicalguitartablature.blogspot.com/
http://classicalguitartablature.blogspot.com/
E|---- 0-- 0 0-- 0------ 0 3------| 5-------------------- 5-- 7----|
B|---- 3 3 3 3-- 3----------------| 6------ 6---- 6-- 6-- 6-- 6----|
G|---- 4 4 4 4-- 4----------------| 5------ 5---- 5-- 5-- 5-- 5----|
D|--------------------------------|-------- 7---- 7-- 7------------|
A|--------------------------------| 5------------------ 5----------|
E| 0------------------------------|--------------------------------|
http://classicalguitartablature.blogspot.com/
E| 0-------------------- 0 3------| 5-------------------- 5-- 7----|
B| 0------ 0---- 0-- 0-- 0-- 0----| 6------ 6---- 6-- 6-- 6-- 6----|
G| 0------ 0---- 0-- 0-- 0-- 0----| 5------ 5---- 5-- 5-- 5-- 5----|
D|-------- 2---- 2-- 2------------|-------- 7---- 7-- 7------------|
A|--------------------------------| 5------------------ 5----------|
E| 0------------------ 0----------|--------------------------------|
http://classicalguitartablature.blogspot.com/
E| 0------------------------------|------------------ 0------------|
B| 0------ 0---- 0-- 0---- 0------|---- 3-- 3------ 3--------------|
G| 0------ 0---- 0-- 0---- 0------|---- 5 5------ 5 0---------- 0--|
D|-------- 2---- 2-- 2---- 2------|---- 3---------- 0------ 0------|
A|--------------------------------| 5------------------------------|
E| 0------------------ 0------ 0--|---------------- 0--------------|
http://classicalguitartablature.blogspot.com/
E|---------------------------- 1--| 0------------------------------|
B|---- 1 1 1-- 1 1-- 1 1---- 1----| 0------ 0-------------- 0------|
G|---- 2 2 4-- 4 2-- 2 0---- 0----| 2------ 2-------- 2---- 2------|
D|---- 3 3 3-- 3 3----------------|---- 0-------------- 0----------|
A|--------------------------------|--------------------------------|
E| 1------------------------------| 0---------- 0-- 0---------- 0--|
http://classicalguitartablature.blogspot.com/
E|------------------------ 0------| 5-------------------- 5-- 7----|
B| 0------ 0------ 0--------------| 6------ 6---- 6-- 6-- 6-- 6----|
G| 1------ 1------ 1--------------| 5------ 5---- 5-- 5-- 5-- 5----|
D| 0------ 0------ 0--------------|-------- 7---- 7-- 7------------|
A|--------------------------------| 5------------------ 5----------|
E| 0-- 0-- 0-- 0-- 0--------------|--------------------------------|
http://classicalguitartablature.blogspot.com/
E| 0---------------------- 0 3----| 5-------------------- 5-- 7----|
B| 0------ 0---- 0-- 0------------| 6------ 6---- 6-- 6-- 6-- 6----|
G| 0------ 0---- 0-- 0------------| 5------ 5---- 5-- 5-- 5-- 5----|
D|-------- 2---- 2-- 2------------|-------- 7---- 7-- 7------------|
A| 3------------------ 3----------| 5------------------ 5----------|
E|--------------------------------|--------------------------------|
http://classicalguitartablature.blogspot.com/
E| 0------------------------------|------------------ 0------------|
B| 0------------ 0-- 0---- 0------|---- 3-- 3------ 3--------------|
G| 0------ 0---- 0-- 0---- 0------|---- 5 5------ 5 0---------- 0--|
D|-------- 2---- 2-- 2---- 2------|---- 3---------- 0------ 0------|
A| 3------------------ 3------ 3--| 5------------------------------|
E|--------------------------------|---------------- 0--------------|
http://classicalguitartablature.blogspot.com/
E|---------------------------- 1--| 0------------------------------|
B|---- 1 1 1-- 1 1-- 1 1---- 1----| 0------ 0-------------- 0------|
G|---- 2 2 4-- 4 2-- 2 0---- 0----| 2------ 2-------- 2---- 2------|
D|---- 3 3 3-- 3 3----------------|---- 0-------------- 0----------|
A|--------------------------------|--------------------------------|
E| 1------------------------------| 0---------- 0-- 0---------- 0--|
http://classicalguitartablature.blogspot.com/
E|------------------------ 0------| 5-------- 5---- 8------ 5------|
B| 0------ 0------ 0--------------| 6------ 8------ 6------ 6------|
G| 1------ 1------ 1--------------| 5-- 5-------------- 5----------|
D| 0------ 0------ 0--------------|-- 7------------------------ 7--|
A|--------------------------------| 5------------------------------|
E| 0-- 0-- 0-- 0-- 0--------------|--------------------------------|
http://classicalguitartablature.blogspot.com/
E|--------------------------------|-------- 5---- 8-------- 5------|
B|-------- 8---- 8 8---- 8--------|---- 5 8 8---- 5-------- 5------|
G|-------- 7---- 7 7---- 7--------|---- 5 5------ 5-------- 5------|
D|---- 5-- 5---- 5 5---- 5--------|---- 7 7-------------------- 7--|
A| 7---------------- 7-------- 7--| 8------------------------------|
E|--------------------------------|--------------------------------|
http://classicalguitartablature.blogspot.com/
E|--------------------------------|---------- 5---- 8------ 5------|
B|-------- 5---- 5-- 5---- 5------|---- 5-- 8 5---- 5------ 5------|
G|-------- 5---- 5-- 5---- 5------|---- 7-- 7 7---- 7-- 7----------|
D|---- 6-- 6---- 6-- 6---- 6------|---- 5-- 5------------------ 5--|
A|--------------------------------|--------------------------------|
E| 6------------------ 6------ 6--| 5------------------------------|
http://classicalguitartablature.blogspot.com/
E|--------------------------------|--------------------------------|
B|-------- 5---- 5 5--------------|------------------------ 5------|
G|-------- 7---- 7 7--------------| 7------ 7-- 7-- 7---- 7--------|
D|-------- 5---- 5 5--------------| 7------ 7-- 7-- 7--------------|
A|--------------------------------| 5---------------- 5------------|
E| 5-- 5-------------- 5-- 5 8----|--------------------------------|
http://classicalguitartablature.blogspot.com/
E|--------------------------------|--------------------------------|
B|-------------------------- 1----|------------------------ 5------|
G| 2------ 2-- 2-- 2------ 2------| 7------ 7-- 7-- 7---- 7------ 2|
D| 2------ 2-- 2---- 2------------| 7------ 7-- 7-- 7------------ 2|
A| 0------------------ 0----------| 5---------------- 5------------|
E|--------------------------------|--------------------------------|
http://classicalguitartablature.blogspot.com/
E|--------------------------------|---- 3-- 3-------- 5------------|
B|--------------------------------|---- 6 6 6-- 6-- 8 8------------|
G|-------- 2---- 2-- 2---- 2------|---- 3 3 3-- 3-- 5 5-------- 5--|
D|-------- 2---- 2-- 2---- 2------|------ 3---- 3-- 5------ 5------|
A| 0------------------ 0------ 0--|--------------------------------|
E|--------------------------------| 3-------------- 5--------------|
http://classicalguitartablature.blogspot.com/
E|---------------------------- 6--|---- 0 0 0----------------------|
B|---- 6 6 6-- 6 6-- 6 6---- 6----|---- 0 0 0-------------- 0------|
G|---- 7 7 9-- 9 7-- 7 7---- 7----|---- 2 2 2-------------- 2------|
D|---- 8 8 8-- 8 8-- 810----10----|------------------------ 0------|
A|--------------------------------|--------------------------------|
E| 6------------------------------| 0------------------ 0---- 0----|
http://classicalguitartablature.blogspot.com/
E|-- 0 0-- 0----------------------|---------------- 0--------------|
B|-- 0 0-- 0------ 0---------- 0--| 1-- 1 1 1-- 1 1 1-- 1 1 1------|
G|-- 2 2-- 2------ 2---------- 2--| 2-- 2 2 2-- 2 2 2-- 2 2 2------|
D|---------------- 0---------- 0--| 2-- 2-- 2-- 2 2---- 2 2 2------|
A|--------------------------------| 0-------------- 0--------------|
E| 0-------------- 0--------------|--------------------------------|
http://classicalguitartablature.blogspot.com/
E| 0 0 0-- 0-- 0 0 3-- 0 0 0------|---------------- 0--------------|
B| 0 0-- 0 0-- 0 0 0-- 0 0 0------| 1-- 1 1 1-- 1 1 1-- 1 1 1------|
G| 0 0-- 0 0-- 0 0 0-- 0 0 0------| 2-- 2 2 2-- 2 2 2-- 2 2 2------|
D|--------------------------------| 2-- 2-- 2-- 2 2---- 2 2 2------|
A|--------------------------------| 0-------------- 0--------------|
E| 0-------------- 0--------------|--------------------------------|
http://classicalguitartablature.blogspot.com/
E| 0 0 0-- 0-- 0 0 3-- 0 0 0------|------------------ 0------------|
B| 0 0-- 0 0-- 0 0 0-- 0 0 0------|---- 3-- 3------ 3--------------|
G| 0 0-- 0 0-- 0 0 0-- 0 0 0------|---- 5 5------ 5 0---------- 0--|
D|--------------------------------|---- 3---------- 0------ 0------|
A|--------------------------------| 5------------------------------|
E| 0-------------- 0--------------|---------------- 0--------------|
http://classicalguitartablature.blogspot.com/
E|---------------------------- 1--| 0------------------------------|
B|---- 1 1 1-- 1 1-- 1 1---- 1----| 0------ 0-------------- 0------|
G|---- 2 2 4-- 4 2-- 2 0---- 0----| 2------ 2-------- 2---- 2------|
D|---- 3 3 3-- 3 3----------------|---- 0-------------- 0----------|
A|--------------------------------|--------------------------------|
E| 1------------------------------| 0---------- 0-- 0---------- 0--|
http://classicalguitartablature.blogspot.com/
E|------------------------ 0------| 5-------- 5---- 8------ 5------|
B| 0------ 0------ 0--------------| 6------ 8------ 6------ 6------|
G| 1------ 1------ 1--------------| 5-- 5-------------- 5----------|
D| 0------ 0------ 0--------------|-- 7------------------------ 7--|
A|--------------------------------| 5------------------------------|
E| 0-- 0-- 0-- 0-- 0--------------|--------------------------------|
http://classicalguitartablature.blogspot.com/
E|--------------------------------|-------- 5---- 8-------- 5------|
B|-------- 8---- 8 8---- 8--------|---- 5 8 8---- 5-------- 5------|
G|-------- 7---- 7 7---- 7--------|---- 5 5------ 5-------- 5------|
D|---- 5-- 5---- 5 5---- 5--------|---- 7 7-------------------- 7--|
A| 7---------------- 7-------- 7--| 8------------------------------|
E|--------------------------------|--------------------------------|
http://classicalguitartablature.blogspot.com/
E|--------------------------------|---------- 5---- 8------ 5------|
B|-------- 5---- 5-- 5---- 5------|---- 5-- 8 5---- 5------ 5------|
G|-------- 5---- 5-- 5---- 5------|---- 7-- 7 7---- 7-- 7----------|
D|---- 6-- 6---- 6-- 6---- 6------|---- 5-- 5------------------ 5--|
A|--------------------------------|--------------------------------|
E| 6------------------ 6------ 6--| 5------------------------------|
http://classicalguitartablature.blogspot.com/
E|------------------------------ 1|------------ 1-- 1---------- 1--|
B|-------- 5---- 5 5------------ 1|------------ 1-- 1---------- 1--|
G|-------- 7---- 7 7------------ 2|------------ 2-- 2---------- 2--|
D|-------- 5---- 5 5--------------|--------------------------------|
A|--------------------------------|--------------------------------|
E| 5-- 5-------------- 5-- 5 8----| 3------ 3------ 3------ 3------|
http://classicalguitartablature.blogspot.com/
E| 1 1-- 1------------------------| 0-------- 0---- 0---------- 0--|
B| 1 1-- 1---- 1------ 1------ 1--| 0-------- 0---- 0---------- 0--|
G| 2 2-------- 2-------------- 2--| 0-------- 0---- 0---------- 0--|
D|------------ 3------ 3------ 3--|--------------------------------|
A|--------------------------------|--------------------------------|
E| 3------ 3------ 3------ 3------| 3---- 3-------- 3------ 3------|
http://classicalguitartablature.blogspot.com/
E| 0 0 0--------------------------| 0---------- 0-- 0---------- 0 0|
B|-- 0 0--------------------------| 1---------- 1-- 1---------- 1 1|
G| 0 0-- 0---- 0------ 0------ 0--| 2---------- 2-- 2---------- 2 2|
D|------------ 2------ 2------ 2--|--------------------------------|
A|--------------------------------|--------------------------------|
E| 3------ 3------ 3------ 3------| 1------ 1------ 1------ 1------|
http://classicalguitartablature.blogspot.com/
E|-- 0 0--------------------------| 0---------- 0 0---------- 0-- 0|
B|-- 1 1--------------------------| 0---------- 0 0---------- 0-- 0|
G|-- 2 2------ 2------ 2------ 2--| 2---------- 2 2---------- 2-- 2|
D|------------ 3------ 3------ 3--|--------------------------------|
A|--------------------------------|--------------------------------|
E| 1------ 1------ 1------ 1------| 0------ 0------ 0---- 0--------|
http://classicalguitartablature.blogspot.com/
E|-- 0 0--------------------------| 8------ 5----------------------|
B|-- 0 0--------------------------| 6------ 6-- 6-- 6---------- 6--|
G|-- 2 2------ 2------ 2----------|---- 5-- 5-- 5-- 5---------- 5--|
D|------------ 0------ 0----------|------------ 3-- 3-- 3------ 3--|
A|------------------------ 0 3----|--------------------------------|
E| 0------ 0------ 0--------------| 3------ 3------ 3------ 3------|
http://classicalguitartablature.blogspot.com/
E|------------------------ 3-- 5--| 7------ 3----------------------|
B| 6 6-- 6---------------- 6-- 6--| 5------ 5-- 5-- 5---------- 5--|
G| 5 5-- 5---- 5------ 5-- 5-- 5--|---- 4-- 4-- 4-- 4---------- 4--|
D| 3 3-- 3---- 3------ 3----------|------------ 5-- 5---------- 5--|
A|--------------------------------|--------------------------------|
E| 3------ 3------ 3------ 3------| 3------ 3------ 3------ 3------|
http://classicalguitartablature.blogspot.com/
E|-------------------------- 3----| 5------------------------------|
B| 5 5-- 5---------------- 5------| 5---------- 5-- 5---------- 5--|
G| 4 4-- 4---- 4------------------| 5---------- 5-- 5---------- 5--|
D| 5 5-- 5---- 5------ 5----------|---- 3------ 3-- 3-- 3------ 3--|
A|--------------------------------|--------------------------------|
E| 3------ 3------ 3------ 3------| 1------ 1------ 1------ 1------|
http://classicalguitartablature.blogspot.com/
E|--------------------------------| 7------------------------------|
B| 5 5-- 5------------------------|10----------10--10--------10----|
G| 5 5-- 5---- 5------ 5------ 5--| 7---------- 7-- 7-------- 7----|
D| 3 3-- 3---- 3------ 3------ 3--|---- 9------ 9-- 9-- 9---- 9----|
A|--------------------------------|--------------------------------|
E| 1------ 1------ 1--------------| 0------ 0------ 0------ 0------|
http://classicalguitartablature.blogspot.com/
E|12------------------------------|17------------------------------|
B|1010--10------------------------|15------------------------------|
G| 9 9-- 9---- 9------ 9------ 9--|14----------14------14----------|
D|--12--12--12------12--------12--|----14------14------14-------- 2|
A|--------------------------------|------------------------------ 0|
E| 0------ 0---- 0-------- 0------| 0------ 0------ 0------ 0 3----|
http://classicalguitartablature.blogspot.com/
E|--------------------------------|--------------------------------|
B|--------------------------------|--------------------------------|
G| 2------------------------------|--------------------------------|
D|--------------------------------|--------------------------------|
A|--------------------------------|--------------------------------|
E|--------------------------------|--------------------------------|
http://classicalguitartablature.blogspot.com/

0 ความคิดเห็น:

แสดงความคิดเห็น