To celebrate the anniversary, I am giving you (finally...) : iPhone LickByNeck !!!!!!

Sweet Home Alabama (BASIC)

Lynyrd Skynyrd's tune fingerstyle chord melody guitar BASIC arrangement played in the key of D.

Sweet Home Alabama-Lynyrd Skynyrd-BASIC Arrangement played in the key of D.
http://classicalguitartablature.blogspot.com/
E|--------------------------------|--------------------------------|
B|------ 3-------------- 3--------|--------------------------------|
G|-------- 2-------------- 0------|-------- 0------------------ 2--|
D| 0 0-------- 0------------------|------------ 0------ 0 2------ 0|
A|---------------- 3-- 3-------- 3|---------------- 0------ 2------|
E|--------------------------------| 3-- 3--------------------------|
http://classicalguitartablature.blogspot.com/
E|--------------------------------|--------------------------------|
B|------ 3-------------- 3--------|---------------------------- 1--|
G|---------- 2-------------- 0----|-------- 0---- 0 2 0 0 4 0 0----|
D|---- 0-------- 0----------------|--------------------------------|
A|---------------- 3-- 3-------- 3|--------------------------------|
E|--------------------------------| 3-- 3--------------------------|
http://classicalguitartablature.blogspot.com/
http://classicalguitartablature.blogspot.com/
E|--------------------------------|--------------------------------|
B|------ 3-------------- 3--------|--------------------------------|
G|-------- 2-------------- 0------|-------- 0------------------ 2--|
D| 0 0-------- 0------------------|------------ 0------ 0 2------ 0|
A|---------------- 3-- 3-------- 3|---------------- 0------ 2------|
E|--------------------------------| 3-- 3--------------------------|
http://classicalguitartablature.blogspot.com/
E|--------------------------------|--------------------------------|
B|------ 3-------------- 3--------|---------------------------- 1--|
G|---------- 2-------------- 0----|-------- 0---- 0 2 0 0 4 0 0----|
D|---- 0-------- 0----------------|--------------------------------|
A|---------------- 3-- 3-------- 3|--------------------------------|
E|--------------------------------| 3-- 3--------------------------|
http://classicalguitartablature.blogspot.com/
E|-------- 1 0-- 0----------------|-- 0----------------------------|
B|-------- 3 3-------- 3-- 0 3-- 3|--------------------------------|
G|-------- 2 2--------------------|-------- 0---------- 0----------|
D| 0-- 0---------- 2--------------|-------------- 0-- 0-- 2 0-- 0 0|
A|---------------- 3-- 3----------|---------------- 0-------- 2----|
E|--------------------------------| 3-- 3--------------------------|
http://classicalguitartablature.blogspot.com/
E|-------- 1-- 0-- 0--------------|--------------------------------|
B|-------- 3------ 3------ 0 3-- 3|---------------- 0--------------|
G|------ 2-------- 0--------------|-------- 0-------- 3 2 0--------|
D|---- 0--------------------------|-------------- 0---- 0------ 0--|
A|---------------- 3-- 3----------|--------------------------------|
E|--------------------------------| 3-- 3--------------------------|
http://classicalguitartablature.blogspot.com/
E|------ 1-- 0-- 0----------------|--------------------------------|
B|-------- 3---------- 3-- 3 3 3--|--------------------------------|
G|-------- 2---------- 0-- 0------|---- 0-------------- 0----------|
D| 0-- 0-------------- 2-- 2------|------------ 0---- 0-- 2 0-- 0 0|
A|---------------- 3-- 3----------|---------------- 0-------- 2----|
E|--------------------------------| 3-- 3--------------------------|
http://classicalguitartablature.blogspot.com/
E|-------- 0-- 0------------------|--------------------------------|
B|------ 6---------- 3---- 3-- 0 3|---- 3-- 3 3------------ 3------|
G|---- 4------------ 0------------|---- 0-- 0-- 0---------- 0------|
D|-- 0-------------- 2------------|---- 0-- 0-------------- 0---- 0|
A|---------------- 3 3------------|--------------------------------|
E|--------------------------------| 3-- 3---------- 3-- 3----------|
http://classicalguitartablature.blogspot.com/
E|--------------------------------|--------------------------------|
B|--------------------------------|--------------------------------|
G|------ 7-- 7-------- 5-- 5------|------ 0-- 0------------ 0------|
D|-------------------- 5-- 5------|-- 0-------------------- 0------|
A| 7 8 9------ 9-- 5 7-------- 7--| 0------------------------------|
E|10--10---------- 8-- 8----------| 3 3-------- 3-- 3-- 3------ 3--|
http://classicalguitartablature.blogspot.com/
E|--------------------------------|--------------------------------|
B|--------------------------------|--------------------------------|
G|------ 7-- 7-------- 5-- 5------|------ 0-- 0--------------------|
D|-------------------- 5-- 5------|-- 0------------------------ 0--|
A| 7 8 9------ 9-- 5 7-------- 7--| 0---------------------- 0 2----|
E|10--10---------- 8-- 8----------| 3-- 3------ 3-- 3-- 3----------|
http://classicalguitartablature.blogspot.com/
E|-------- 1 0-- 0----------------|---------------- 1------ 0------|
B|---- 3-------- 3---- 3 3-- 0-- 3|-- 3------------ 1------ 1------|
G|---- 2-------- 0-------------- 0|---- 0---------- 2------ 0------|
D| 0-- 0-------- 2---- 2-------- 0|------------ 0---------------- 0|
A|---------------- 3-- 3----------|--------------------------------|
E|--------------------------------| 3 3------------ 1------ 0------|
http://classicalguitartablature.blogspot.com/
E|-------- 1-- 0-- 0--------------|--------------------------------|
B|-------- 3------ 3------ 0 3-- 3|---------------- 0--------------|
G|------ 2-------- 0--------------|-------- 0-------- 3 2 0--------|
D|---- 0--------------------------|-------------- 0---- 0------ 0--|
A|---------------- 3-- 3----------|--------------------------------|
E|--------------------------------| 3-- 3--------------------------|
http://classicalguitartablature.blogspot.com/
E|------ 1-- 0-- 0----------------|--------------------------------|
B|-------- 3---------- 3-- 3 3 3--|--------------------------------|
G|-------- 2---------- 0-- 0------|---- 0-------------- 0----------|
D| 0-- 0-------------- 2-- 2------|------------ 0---- 0-- 2 0-- 0 0|
A|---------------- 3-- 3----------|---------------- 0-------- 2----|
E|--------------------------------| 3-- 3--------------------------|
http://classicalguitartablature.blogspot.com/
E|-------- 0-- 0------------------|--------------------------------|
B|------ 6---------- 3---- 3-- 0 3|-- 3-- 3-- 3 0------------------|
G|---- 4------------ 0---------- 0|-- 0---------------- 0----------|
D|-- 0-------------- 2---------- 0|---- 0------------ 0-- 2 0---- 0|
A|---------------- 3 3------------|-------------- 0-- 2------ 0 2--|
E|--------------------------------| 3-- 3--------------------------|
http://classicalguitartablature.blogspot.com/
E|------ 1 0-- 0------------------|--------------------------------|
B|------ 3-------- 3------ 3-- 0 3|-- 0----------------------------|
G|------ 2-------- 0--------------|---- 0--------------------------|
D|-- 0----------------------------|-------- 2-- 2------ 0-- 0 2-- 0|
A|---------------- 3-- 3----------|---------------- 0 2------ 3----|
E|--------------------------------| 3 3------------ 3--------------|
http://classicalguitartablature.blogspot.com/
E|------ 1 0-- 0------------------|--------------------------------|
B|------ 3-------- 3------ 3-- 0--|--------------------------------|
G|------ 2-------- 0--------------|-- 0---- 0---- 0---- 0---- 0----|
D|-- 0----------------------------| 0---- 0---- 0---- 0---- 0---- 0|
A|---------------- 3-- 3----------|-------------------- 3---- 3----|
E|--------------------------------| 3-- 3--------------------------|
http://classicalguitartablature.blogspot.com/
E|------ 1 0-- 0------------------|--------------------------------|
B|------ 3-------- 3------ 3-- 0 3|-- 0----------------------------|
G|------ 2-------- 0--------------|---- 0--------------------------|
D|-- 0----------------------------|-------- 2-- 2------ 0-- 0 2----|
A|---------------- 3-- 3----------|---------------- 0 2------ 3----|
E|--------------------------------| 3 3------------ 3--------------|
http://classicalguitartablature.blogspot.com/
E|------ 1---- 0 0-------------- 0|---------------- 5------ 3------|
B|------ 3------ 3-- 3-- 3--------| 3-------------- 1------ 1------|
G|------ 2------ 0----------------|-- 0---- 2 0---- 2------ 0------|
D| 0-- 0------------ 2------------|-- 2-- 2-- 2--------------------|
A|---------------- 3--------------|--------------------------------|
E|--------------------------------| 3-- 3---------- 1------ 0------|
http://classicalguitartablature.blogspot.com/
E|--------------------------------|--------------------------------|
B|--------------------------------|--------------------------------|
G|------ 7-- 7-------- 5-- 5------|------ 0-- 0------------ 0------|
D|-------------------- 5-- 5------|-- 0-------------------- 0------|
A| 7 8 9------ 9-- 5 7-------- 7--| 0------------------------------|
E|10--10---------- 8-- 8----------| 3 3-------- 3-- 3-- 3------ 3--|
http://classicalguitartablature.blogspot.com/
E|--------------------------------|--------------------------------|
B|--------------------------------|--------------------------------|
G|------ 7-- 7-------- 5-- 5------|------ 0-- 0--------------------|
D|-------------------- 5-- 5------|-- 0------------------------ 0--|
A| 7 8 9------ 9-- 5 7-------- 7--| 0---------------------- 0 2----|
E|10--10---------- 8-- 8----------| 3-- 3------ 3-- 3-- 3----------|
http://classicalguitartablature.blogspot.com/
E|--------------------------------|--------------------------------|
B| 3------------------------------|--------------------------------|
G| 2------------------------------|--------------------------------|
D| 0------------------------------|--------------------------------|
A|--------------------------------|--------------------------------|
E|--------------------------------|--------------------------------|
http://classicalguitartablature.blogspot.com/

0 ความคิดเห็น:

แสดงความคิดเห็น