To celebrate the anniversary, I am giving you (finally...) : iPhone LickByNeck !!!!!!

Two For The Road (BASIC)

Henry Mancini's tune fingerstyle chord melody guitar BASIC arrangement played in the key of Em.
Two For The Road-Henry Mancini-BASIC Arrangement played in the key of G.
ClassicalGuitarTablature http://classicalguitartablature.blogspot.com/
E| 7------------ 7----------------| 7------------------------------|
B| 8------ 8------ 8--10---- 810--| 5-------- 5---- 4 5------ 7 8--|
G|---- 9------ 9 8------ 8--------| 7------ 7------ 6 6------------|
D|--------------------------------|---- 5-------- 5-------- 5------|
A|--------------------------------|--------------------------------|
E| 0------------ 0----------------| 0------------ 0----------------|
ClassicalGuitarTablature http://classicalguitartablature.blogspot.com/
E| 5------------------------------|-------------------------- 0 1--|
B| 6-------------------------- 6--|---------- 3---- 2 3------ 0 0--|
G| 7------ 7-------------- 6------|------ 5-------- 4-------- 0 0--|
D|---- 7------ 7---- 7------------|---- 3-------- 3----------------|
A| 5------------ 5----------------| 5------------------------------|
E|--------------------------------|-------------- 3------ 1--------|
ClassicalGuitarTablature http://classicalguitartablature.blogspot.com/

E| 3---------------- 6------ 5----|------------------ 4------ 3----|
B| 3---------- 3---- 5-------- 8--| 6-------- 6------ 3-------- 6--|
G|-------- 3-------- 6------------| 5---- 5---------- 4-- 4--------|
D|---- 2---------------- 5------ 6|---- 6------ 6------------------|
A|---------------- 0------------ 5|--------------------------------|
E| 0------------------------------|---------------- 3--------------|
ClassicalGuitarTablature http://classicalguitartablature.blogspot.com/
E| 0------------------------------|------------------ 0-- 0-- 0-- 0|
B| 1---------- 1-- 0---------- 0--|------------------ 0-- 0-- 0----|
G| 0------ 0------ 0------ 0------| 2------ 2-------- 0-- 0---- 0--|
D|---- 2-------------- 2----------|---- 2---- 2--------------------|
A| 3------------------------------| 3------------------------------|
E|---------------- 3--------------|---------------- 3--------------|
ClassicalGuitarTablature http://classicalguitartablature.blogspot.com/
E|--------------------------------|------------------------ 5-- 3--|
B| 1---------- 1-- 1------ 1------|------ 0-------- 4-- 7-- 1-- 1--|
G| 2------ 2------ 2---- 2---- 2--|------ 0-------- 4------ 2-- 2 0|
D|---- 2-------- 4---- 4----------|---- 1------ 1-- 5--------------|
A|-------------- 3----------------| 2-------------- 6--------------|
E| 2------------------------------|------------------------ 1---- 0|
ClassicalGuitarTablature http://classicalguitartablature.blogspot.com/
E| 2-------- 0---- 3--------------|-------------------- 0-- 7------|
B| 0------ 0------ 3------ 3------|------------ 0-- 3------ 7--10--|
G|------ 0-------- 4-- 4------ 4--|-------- 0------------ 7--------|
D|---- 0-------------- 5----------|---- 2-------- 2-------------- 5|
A|---------------- 5--------------| 3------------ 3-------------- 0|
E|--------------------------------|---------------------- 7--------|
ClassicalGuitarTablature http://classicalguitartablature.blogspot.com/
E|---------------- 5--------------|---------------- 2---- 5------ 8|
B| 8-------- 7---- 6---------- 6--|------------ 3-- 1---- 4------ 8|
G| 5---- 5------ 6-------- 6------|-------- 5-------- 2------ 2----|
D|---- 5-------------- 5----------|---- 5--------------------------|
A|-------------- 6----------------| 5------------------------------|
E|--------------------------------|---------------- 0------ 2------|
ClassicalGuitarTablature http://classicalguitartablature.blogspot.com/
E|------------ 7-- 7--------------|---------- 7-- 7------ 7--------|
B|-------- 8------ 8---- 8--------|---------------- 8------ 8------|
G|---- 8---------- 7-- 7----------|------ 7-------- 7------ 7-- 7 9|
D|-------------------- 9---- 9----|-- 9---------------- 9----------|
A|--------------------------------|----------------10------ 8------|
E| 3-------------- 7------------10|------------------------------ 0|
ClassicalGuitarTablature http://classicalguitartablature.blogspot.com/
E| 7-------- 7-- 7----------------| 7------------------------------|
B| 8------ 8---- 8--10------ 810--| 5-------- 5---- 5-- 5---- 7 8--|
G|---- 9-------- 8------ 8--------| 7------ 7------ 6-- 6---- 6----|
D|--------------------------------|---- 5-------- 5---------- 5----|
A|--------------------------------|---------------------- 6--------|
E|-------------- 0----------------| 0------------ 0----------------|
ClassicalGuitarTablature http://classicalguitartablature.blogspot.com/
E| 5---------- 5------------------|-------------------------- 0 1--|
B| 6-------------------------- 6--|---------- 3---- 2-- 3---- 0 0--|
G| 7---- 7---------------- 6------|------ 5------ 4---------- 0 0--|
D|---- 7-------------- 7----------|---- 3-------- 3-------------- 8|
A| 5-------------- 5--------------| 5------------------------------|
E|--------------------------------|-------------- 3------ 1------ 0|
ClassicalGuitarTablature http://classicalguitartablature.blogspot.com/
E|-------------------- 6-- 5------|------------------ 4---- 3------|
B| 8------------------ 5-- 6-- 8--| 6---------------- 3---- 4 6----|
G| 7------------------ 6 6--------| 5---- 5---- 5---- 4-- 4-- 4----|
D|---- 8------ 8------------------|---- 6---- 6--------------------|
A|---------------------- 6------ 5|---------------------- 4--------|
E|-------- 6------ 5--------------|-------- 4------ 3--------------|
ClassicalGuitarTablature http://classicalguitartablature.blogspot.com/
E| 0------------------------------|------------------ 0-- 0-- 0-- 0|
B| 1---------- 1-- 0---------- 0--|------------------ 0-- 0-- 0----|
G| 0------ 0------ 0------ 0------| 2------ 2-------- 0-- 0---- 0--|
D|---- 2-------------- 2----------|---- 2---- 2--------------------|
A| 3------------------------------| 3------------------------------|
E|---------------- 3--------------|---------------- 3--------------|
ClassicalGuitarTablature http://classicalguitartablature.blogspot.com/
E|--------------------------------|------------------------ 5-- 3--|
B| 1---------- 1-- 1------ 1------|------ 0-------- 4-- 7-- 1-- 1--|
G| 2------ 2------ 2---- 2---- 2--|------ 0-------- 4------ 2-- 2 0|
D|---- 2-------- 4---- 4----------|---- 1------ 1-- 5--------------|
A|-------------- 3----------------| 2-------------- 6--------------|
E| 2------------------------------|------------------------ 1---- 0|
ClassicalGuitarTablature http://classicalguitartablature.blogspot.com/
E| 2-------- 0---- 3--------------|-------------------- 0-- 7------|
B| 0------ 0------ 3------ 3------|------------ 0-- 3------ 7--10--|
G|------ 0-------- 4-- 4------ 4--|-------- 0------------ 7--------|
D|---- 0-------------- 5----------|---- 2-------- 2-------------- 5|
A|---------------- 5--------------| 3------------ 3-------------- 0|
E|--------------------------------|---------------------- 7--------|
ClassicalGuitarTablature http://classicalguitartablature.blogspot.com/
E|---------------- 5--------------|---------------- 2---- 5------ 8|
B| 8-------- 7---- 6---------- 6--|------------ 3-- 1---- 4------ 8|
G| 5---- 5------ 6-------- 6------|-------- 5-------- 2------ 2----|
D|---- 5-------------- 5----------|---- 5--------------------------|
A|-------------- 6----------------| 5------------------------------|
E|--------------------------------|---------------- 0------ 2------|
ClassicalGuitarTablature http://classicalguitartablature.blogspot.com/
E|------------ 7-- 7--------------|-------- 7------ 8------ 7------|
B|-------- 8------ 8--------------|-------- 6---------- 0-- 8------|
G|---- 8---------- 7------ 7------|---- 5------ 5-------------- 7--|
D|-------------------- 9------ 9--|--------------------------------|
A|--------------------------------| 5--------------10------ 8------|
E| 3-------------- 7--------------|--------------------------------|
ClassicalGuitarTablature http://classicalguitartablature.blogspot.com/
E|10------------------------ 5-- 7|---------------------- 5--------|
B| 8-------- 8-- 8---------- 5-- 5|------------ 5------ 4----------|
G| 9------ 9---- 5---------- 4----| 4---- 4------------ 2----------|
D|---- 9-------- 7-- 7------------|-- 5---------------- 5------ 5--|
A|-------------- 6------ 5------ 4|-------------- 3----------------|
E| 0------------------------------|------------------------------ 7|
ClassicalGuitarTablature http://classicalguitartablature.blogspot.com/
E|10------------------------------|--------------------------------|
B| 8---------- 8-- 8------ 8------| 8----10-- 8---- 7---- 7--------|
G| 7------ 7------10------10------| 9-------------- 9-------- 9----|
D|---- 9----------10--10------ 910|----10-------- 9-- 9------------|
A|--------------------------------|--------------------------------|
E|--------------10-------- 9---- 8|-------------- 9----------------|
ClassicalGuitarTablature http://classicalguitartablature.blogspot.com/
E|--------------------------------|-------------------- 7----------|
B|------------------------ 8------| 3------------ 3---- 7----------|
G| 7------------ 7------ 7--------| 5-------- 5-------- 5----------|
D|---- 9-------------- 5 6---- 6--| 5-- 5-------------------- 4----|
A|--------------------------------|--------------------------------|
E|10------ 9-- 8-- 7------ 6------| 5------------------ 4----------|
ClassicalGuitarTablature http://classicalguitartablature.blogspot.com/
E|--------------------------------|-------- 3----------------------|
B|------ 7------------------------|-------- 2-------- 2------------|
G| 5------------------------------|-------- 4---- 4----------------|
D|--------------------------------|------------ 2------------------|
A|--------------------------------|--------------------------------|
E|--------------------------------|------ 3------------------------|
ClassicalGuitarTablature http://classicalguitartablature.blogspot.com/

0 ความคิดเห็น:

แสดงความคิดเห็น