To celebrate the anniversary, I am giving you (finally...) : iPhone LickByNeck !!!!!!
0 com

Heartbreak Hotel (BASIC)

Elvis Presley's tune fingerstyle chord melody guitar BASIC arrangement played in the key of E.

Heartbreak Hotel-Elvis Presley-BASIC Arrangement played in the key of E.
http://classicalguitartablature.blogspot.com/
E| 0-- 0-- 0---------- 0----------| 0-- 0-- 0----------------------|
B| 0-- 0-- 0-- 0-- 3-- 0------ 0--| 0-- 0-- 0-- 0 3------------ 0--|
G|------------ 0-- 2---------- 0--|------------ 0 2------------ 0--|
D|--------------------------------|--------------------------------|
A|--------------------------------|--------------------------------|
E|-------------------- 0-- 0------|-------------------- 0-- 0------|
http://classicalguitartablature.blogspot.com/
E| 0-- 2 3---- 2-- 0--------------|--------------------------------|
B| 0------------------ 3-- 0-- 3--|--------------------------------|
G|--------------------------------|---- 7-- 4----------------------|
D|--------------------------------|------------ 7-- 5---- 2 2-- 2--|
A|--------------------------------| 7-- 7-- 6-- 6-- 5-- 5-- 4-- 2--|
E|--------------------------------|--------------------------------|
http://classicalguitartablature.blogspot.com/
http://classicalguitartablature.blogspot.com/
E|--------------------------------|--------------------------------|
B|--------------------------------|--------------------------------|
G|---------------- 0--------------|-------------- 0----------------|
D|---- 2-- 2-- 4------ 2-- 2-- 2--|---- 2-- 2-- 4------ 2----------|
A| 0-- 0--------------------------| 0-- 0--------------------------|
E|-------- 2-- 2-- 0-- 0-- 2-- 2--|-------- 2-- 2-- 0-- 0-- 2-- 2--|
http://classicalguitartablature.blogspot.com/
E|--------------------------------|---------------------------- 0--|
B|--------------------------------|---------------------------- 0--|
G|------------ 1-- 2--------------|--------------------------------|
D|---- 4-- 4------------------ 2--| 2------------------------------|
A| 2-- 2-------------- 2---- 4----|---------------- 2-- 2----------|
E|-------- 5-- 5-- 4-- 4-- 2-- 2--| 0-- 0-- 4-- 4---------- 4-- 4--|
http://classicalguitartablature.blogspot.com/
E| 0-- 0-- 0----------------------| 0-- 0-- 0----------------------|
B| 0---- 0 0 0-- 3------------ 0--| 0-- 0-- 0-- 0 3------------ 0--|
G|-------------------- 1-- 1-- 0--|------------ 0 2------------ 0--|
D|-------------------- 2-- 2------|--------------------------------|
A|--------------------------------|--------------------------------|
E|-------------------- 0-- 0------|-------------------- 0-- 0------|
http://classicalguitartablature.blogspot.com/
E| 0-- 2 3---- 2-- 0--------------|--------------------------------|
B| 0------------------ 3-- 0-- 3--|--------------------------------|
G|--------------------------------|---- 7-- 4----------------------|
D|--------------------------------|------------ 7-- 5---- 2 2-- 2--|
A|--------------------------------| 7-- 7-- 6-- 6-- 5-- 5-- 4-- 2--|
E|--------------------------------|--------------------------------|
http://classicalguitartablature.blogspot.com/
E|--------------------------------|--------------------------------|
B|--------------------------------|--------------------------------|
G|---------------- 0--------------|-------------- 0----------------|
D|---- 2-- 2-- 4------ 2-- 2-- 2--|---- 2-- 2-- 4------ 2----------|
A| 0-- 0--------------------------| 0-- 0--------------------------|
E|-------- 2-- 2-- 0-- 0-- 2-- 2--|-------- 2-- 2-- 0-- 0-- 2-- 2--|
http://classicalguitartablature.blogspot.com/
E|--------------------------------|---------------------------- 0--|
B|--------------------------------|---------------------------- 0--|
G|------------ 1-- 2--------------|--------------------------------|
D|---- 4-- 4------------------ 2--| 2------------------------------|
A| 2-- 2-------------- 2---- 4----|---------------- 2-- 2----------|
E|-------- 5-- 5-- 4-- 4-- 2-- 2--| 0-- 0-- 4-- 4---------- 4-- 4--|
http://classicalguitartablature.blogspot.com/
E| 0-- 0-- 0----------------------| 0-- 0-- 0----------------------|
B| 0---- 0 0 0-- 3------------ 0--| 0-- 0-- 0-- 0 3------------ 0--|
G|-------------------- 1-- 1-- 0--|------------ 0 2------------ 0--|
D|-------------------- 2-- 2------|--------------------------------|
A|--------------------------------|--------------------------------|
E|-------------------- 0-- 0------|-------------------- 0-- 0------|
http://classicalguitartablature.blogspot.com/
E| 0-- 2 3---- 2-- 0--------------|--------------------------------|
B| 0------------------ 3-- 0-- 3--|--------------------------------|
G|--------------------------------|---- 7-- 4----------------------|
D|--------------------------------|------------ 7-- 5---- 2 2-- 2--|
A|--------------------------------| 7-- 7-- 6-- 6-- 5-- 5-- 4-- 2--|
E|--------------------------------|--------------------------------|
http://classicalguitartablature.blogspot.com/
E|--------------------------------|--------------------------------|
B|--------------------------------|--------------------------------|
G|---------------- 0--------------|-------------- 0----------------|
D|---- 2-- 2-- 4------ 2-- 2-- 2--|---- 2-- 2-- 4------ 2----------|
A| 0-- 0--------------------------| 0-- 0--------------------------|
E|-------- 2-- 2-- 0-- 0-- 2-- 2--|-------- 2-- 2-- 0-- 0-- 2-- 2--|
http://classicalguitartablature.blogspot.com/
E|--------------------------------|--------------------------------|
B|--------------------------------|--------------------------------|
G|------------ 1-- 2--------------|--------------------------------|
D|---- 4-- 4------------------ 2--| 2------------------------------|
A| 2-- 2-------------- 2---- 4----|---- 7-- 5-- 4------------------|
E|-------- 5-- 5-- 4-- 4-- 2-- 2--|---------------- 7-- 5-- 4-- 2--|
http://classicalguitartablature.blogspot.com/
E|--------------------------------|--------------------------------|
B|------ 3---- 0------------------|--------------------------------|
G|-------- 2-- 1------------------|--------------------------------|
D|-------- 1-- 0------------------|--------------------------------|
A|--------------------------------|--------------------------------|
E| 0------ 1-- 0------------------|--------------------------------|
http://classicalguitartablature.blogspot.com/
0 com

Hot Stuff (BASIC)

Donna Summer's tune fingerstyle chord melody guitar BASIC arrangement played in the key of Em.

Hot Stuff-Donna Summer-BASIC Arrangement played in the key of Em.
http://classicalguitartablature.blogspot.com/
E|--------------------------------|--------------------------------|
B|--------------------------------|--------------------------------|
G|--------------------------------|--------------------------------|
D|---- 2------ 2------ 2------ 2--|---- 2------ 2------ 2------ 2--|
A|--------------------------------|--------------------------------|
E| 0------ 0------ 0------ 0------| 0------ 0------ 0------ 0------|
http://classicalguitartablature.blogspot.com/
E|---------------------------- 0--|-------- 0----------------------|
B|---------------- 0-- 3---- 0----|---- 3------ 3-- 0--------------|
G|-------- 0-- 2------------------|-------------------- 0------ 2--|
D| 2-- 4--------------------------|---------------------------- 4--|
A|--------------------------------|--------------------------------|
E| 0------ 0------ 0------ 0------| 0------ 0------ 0------ 0------|
http://classicalguitartablature.blogspot.com/
http://classicalguitartablature.blogspot.com/
E|--------------------------------|--------------------------------|
B|--------------------------------|--------------------------------|
G|---- 0-- 2-- 0-- 2-- 0------ 3--|---- 2-- 0----------------------|
D|---------------- 4--------------|------------ 2------ 2------ 2--|
A| 5------ 5------ 5------ 5------|--------------------------------|
E|--------------------------------| 0------ 0------ 0------ 0------|
http://classicalguitartablature.blogspot.com/
E|---------------------------- 0--|-------- 0----------------------|
B|---------------- 0-- 3---- 0----|---- 3------ 3-- 0--------------|
G|-------- 0-- 2------------------|-------------------- 0------ 2--|
D| 2-- 4--------------------------|---------------------------- 4--|
A|--------------------------------|--------------------------------|
E| 0------ 0------ 0------ 0------| 0------ 0------ 0------ 0------|
http://classicalguitartablature.blogspot.com/
E|--------------------------------|--------------------------------|
B|--------------------------------|--------------------------------|
G|---- 0-- 2-- 0-- 2-- 0------ 3--|---- 2-- 0----------------------|
D|---------------- 4--------------|------------ 2------ 2------ 2--|
A| 5------ 5------ 5------ 5------|--------------------------------|
E|--------------------------------| 0------ 0------ 0------ 0------|
http://classicalguitartablature.blogspot.com/
E| 0------ 0------ 0---------- 2--|-------------------- 0----------|
B| 0-- 3-- 0-- 3-- 0-- 3------ 0--|---- 0------ 3-------------- 0--|
G| 0------ 0-- 0-- 0-- 0----------|---- 0------ 0------------------|
D|------------ 2------------------|--------------------------------|
A|--------------------------------|--------------------------------|
E| 0------ 0------ 0------ 0------| 0------ 0------ 0------ 0------|
http://classicalguitartablature.blogspot.com/
E|------------------------ 3-- 0--|--------------------------------|
B| 3-- 0-- 3-- 0-- 3-- 0------ 0--|--------------------------------|
G| 2-- 2-- 2-- 2-- 2---------- 0--|------------ 0------------------|
D|---- 4------ 4-- 4--------------|---- 2------ 2------ 2------ 2--|
A| 5------ 5------ 5------ 5------|--------------------------------|
E|--------------------------------| 0------ 0------ 0------ 0------|
http://classicalguitartablature.blogspot.com/
E| 0------ 0------ 0---------- 2--|-------------------- 0----------|
B| 0-- 3-- 0-- 3-- 0-- 3------ 0--|---- 0------ 3-------------- 0--|
G| 0------ 0-- 0-- 0-- 0----------|---- 0------ 0------------------|
D|------------ 2------------------|--------------------------------|
A|--------------------------------|--------------------------------|
E| 0------ 0------ 0------ 0------| 0------ 0------ 0------ 0------|
http://classicalguitartablature.blogspot.com/
E|---------------- 3-- 2-- 0-- 0--|---------------- 0 0-- 3---- 0 5|
B| 3-- 0-- 3-- 0------------------|------------ 0-- 0---- 0---- 0 5|
G| 2------ 2----------------------|------------ 0---------- 0-- 0--|
D| 4------------------------------|---- 2--------------------------|
A| 5------ 5------ 5------ 5------|--------------------------------|
E|--------------------------------| 0------ 0------ 0------ 0------|
http://classicalguitartablature.blogspot.com/
E|-------- 5---- 3---- 2------ 0--|---- 0---------- 0-- 0-- 3-- 0--|
B|-------- 5-------- 3---- 5-- 0--|---- 0---------- 0-- 0------ 0--|
G|---- 5---------- 2------ 2 0----|------------ 0------------------|
D|--------------------------------|--------------------------------|
A| 0------ 0------ 2------ 2------|--------------------------------|
E|--------------------------------| 0------ 0------ 0------ 0------|
http://classicalguitartablature.blogspot.com/
E| 5------ 5------ 3-- 2------ 0--|---- 0---------- 0-- 0-- 3-- 0--|
B| 5------ 5------ 3-- 3-- 5-- 0--|---------------- 0-- 0-- 0-- 0--|
G|---- 5---------- 2-- 2----------|--------------------------------|
D|--------------------------------|------------ 2------------------|
A| 0------ 0------ 2------ 2------|--------------------------------|
E|--------------------------------| 0------ 0------ 0------ 0------|
http://classicalguitartablature.blogspot.com/
E| 5------ 5---- 7------------ 7--|---------------------------- 5--|
B| 5------ 5------ 7--10-- 8-- 8--|--10-- 8-------------------- 5--|
G|---- 5------ 5-- 7------ 7-- 7--|-------- 9------------------ 5--|
D|------------------------ 7------|-------------------- 9----------|
A| 0------ 0----------------------|--------------------------------|
E|---------------- 7------ 7------| 0------ 0------ 0------ 0------|
http://classicalguitartablature.blogspot.com/
E|------ 5------ 5------------ 7--|-------------------------- 5 3--|
B|---- 8 8-- 8---- 8-- 8------ 8--|-- 8--10-- 8--10---- 8------ 0--|
G|---- 5---- 5-------- 5------ 8--|-- 8-- 8-- 8-- 8---- 8------ 0--|
D|--------------------------------|-- 7-- 7-- 7-- 7---- 7----------|
A| 0------------------------------|--------------------------------|
E|--------------------------------| 7------------------------------|
http://classicalguitartablature.blogspot.com/
E|--------------------------------|------------------------------ 7|
B| 5------------------------------|------------------ 8--10-- 8----|
G|-------------------- 0------ 2--|---- 2-------- 8------ 8-- 8----|
D|-------------------- 0------ 2--|---- 2-------- 7------ 7-- 7----|
A|--------------------------------|--------------------------------|
E| 0------ 0------ 0-- 3------ 5--|------ 5---- 0 7----------------|
http://classicalguitartablature.blogspot.com/
E|------ 5---- 3------------------|--------------------------------|
B| 0---- 0------------------------|------------------ 8--10-- 8----|
G| 0------ 0------------------ 2--|---- 2-------- 8---------- 8----|
D|---------------------------- 2--|---- 2-------- 7------------ 7--|
A|--------------------------------|--------------------------------|
E| 0------ 0------ 0-- 3------ 5--|-------- 5------ 7---------- 7--|
http://classicalguitartablature.blogspot.com/
E|---- 0------ 0------ 0------ 0--|---- 0-------------- 0----------|
B|---- 0------ 0------ 0------ 0--|---- 0------ 3------ 0----------|
G|---- 0------ 0------ 0------ 0--|---- 0------ 0------ 0----------|
D|--------------------------------|------------ 2-------------- 2--|
A|--------------------------------|------------------------------ 5|
E| 0------ 0------ 0------ 0------| 0------ 0------ 0------ 0------|
http://classicalguitartablature.blogspot.com/
E|--------------------------------|--------------------------------|
B|---- 3------ 3------ 3----------|--------------------------------|
G|---- 2------ 2------ 2----------|------------ 0-------------- 0--|
D|---- 4---------------------- 4--|---- 2------ 2------ 2----------|
A|-------- 5------ 5------ 5------|--------------------------------|
E|--------------------------------| 0------ 0------ 0------ 0------|
http://classicalguitartablature.blogspot.com/
E|---- 0------ 0------ 0------ 0--|---- 0-------------- 0----------|
B|---- 0------ 0------ 0------ 0--|---- 0------ 3------ 0----------|
G|---- 0------ 0------ 0------ 0--|---- 0------ 0------ 0----------|
D|--------------------------------|------------ 2-------------- 2--|
A|--------------------------------|------------------------------ 5|
E| 0------ 0------ 0------ 0------| 0------ 0------ 0------ 0------|
http://classicalguitartablature.blogspot.com/
E|--------------------------------|--------------------------------|
B|---- 3------ 3------ 3----------|--------------------------------|
G|---- 2------ 2------ 2----------|------------ 0-------------- 0--|
D|---- 4---------------------- 4--|---- 2------ 2------ 2----------|
A|-------- 5------ 5------ 5------|--------------------------------|
E|--------------------------------| 0------ 0------ 0------ 0------|
http://classicalguitartablature.blogspot.com/
E|---------------------------- 0--|-------- 0----------------------|
B|---------------- 0-- 3---- 0----|---- 3------ 3-- 0--------------|
G|-------- 0-- 2------------------|-------------------- 0------ 2--|
D| 2-- 4--------------------------|---------------------------- 4--|
A|--------------------------------|--------------------------------|
E| 0------ 0------ 0------ 0------| 0------ 0------ 0------ 0------|
http://classicalguitartablature.blogspot.com/
E|--------------------------------|--------------------------------|
B|--------------------------------|--------------------------------|
G|---- 0-- 2-- 0-- 2-- 0------ 3--|---- 2-- 0-------------------- 9|
D|---------------- 4--------------|------------ 2------ 2------ 2--|
A| 5------ 5------ 5------ 5------|--------------------------------|
E|--------------------------------| 0------ 0------ 0------ 0------|
http://classicalguitartablature.blogspot.com/
E|---------------- 7--10------12--|----10--12--10 7------------ 5--|
B|---- 7-- 8--10 8----------------|-------------------- 8------ 8--|
G|--------------------------------|---------------------------- 7--|
D|--------------------------------|--------------------------------|
A|--------------------------------|--------------------------------|
E| 0------ 0------ 0------ 0------| 0------ 0------ 0------ 0------|
http://classicalguitartablature.blogspot.com/
E|-------- 5------ 5--------------|------------12------------------|
B|---- 8-- 8-- 8-- 8-- 8----------|101010-- 8--12------------------|
G|---- 7------ 7------ 7----------|--------------------------------|
D|--------------------------------|--------------------------------|
A| 5------------------------------|--------------------------------|
E|--------------------------------| 0---------- 0------------------|
http://classicalguitartablature.blogspot.com/
0 com

Rosanna (BASIC)

Toto's tune fingerstyle chord melody guitar BASIC arrangement played in the key of G.

Rosanna-Toto-BASIC Arrangement played in the key of G.
http://classicalguitartablature.blogspot.com/
E|--------------------------------|--------------------------------|
B|--------------------------------|--------------------------------|
G| 0------------------------------|---------------- 0-- 0------ 0 0|
D| 0------------------------------|------------------------------ 0|
A|--------------------------------|--------------------------------|
E| 3---------- 3---------- 3------|---- 3---------------- 3--------|
http://classicalguitartablature.blogspot.com/
E|--------------------------------|--------------------------------|
B|--------------------------------|--------------------------------|
G|--------------------------------|-------------- 0---- 0---- 0----|
D|--------------------------------|--------------------------------|
A|--------------------------------|--------------------------------|
E| 3---------- 3---------- 3------|------ 3-------------- 3--------|
http://classicalguitartablature.blogspot.com/
http://classicalguitartablature.blogspot.com/
E|--------------------------------|--------------------------------|
B|--------------------------------|--------------------------------|
G| 0------ 0------ 0------ 0-- 0--|---- 0-- 0------ 0---- 0--------|
D| 0------ 0------ 0------ 0-- 0--|---- 0-- 0------ 0---- 0--------|
A|--------------------------------|--------------------------------|
E| 3------------------------------| 3------------------------------|
http://classicalguitartablature.blogspot.com/
E|--------------------------------|--------------------------------|
B|-------- 0-- 0------------------|---------------------- 3------ 1|
G| 2---- 0---------------- 0------|-------------- 0-------------- 0|
D| 0------------------ 0----------|------ 0---------------------- 0|
A|--------------------------------|--------------------------------|
E| 3------------------------------| 3---------------------------- 3|
http://classicalguitartablature.blogspot.com/
E|--------------------------------|--------------------------------|
B|------------ 0-------- 3--------| 1---------- 0------------------|
G|---------- 0--------------------| 0---------- 0-------- 0--------|
D|--------------------------------| 0-------- 0-------- 0----------|
A|--------------------------------|--------------------------------|
E|--------------------------------| 3------------------------------|
http://classicalguitartablature.blogspot.com/
E|--------------------------------|--------------------------------|
B|--------------------------------|--------------------------------|
G|------ 2------ 2-------- 0-- 2 3|---- 2------ 2------ 0 2---- 0--|
D|------ 3------ 3-------- 3-- 3--|---- 3------ 3------ 3----------|
A|--------------------------------|--------------------------------|
E| 1------------------------------| 1------------------------------|
http://classicalguitartablature.blogspot.com/
E|--------------------------------|--------------------------------|
B|--------------------------------|--------------------------------|
G| 3-- 2------ 2------------------|-------------- 0------ 0--------|
D| 2-- 2------ 2------ 0 2--------|-------- 2----------------------|
A|--------------------------------|--------------------------------|
E| 0------------------------------| 0------------------------------|
http://classicalguitartablature.blogspot.com/
E|--------------------------------|--------------------------------|
B|------ 0------ 1 0--------------|--------------------------------|
G| 2------------------------------|---------------- 0-- 0------ 0--|
D|--------------------------------|---- 0--------------------------|
A|--------------------------------|--------------------------------|
E| 3---------------------- 3------|------------------------ 3------|
http://classicalguitartablature.blogspot.com/
E|--------------------------------|--------------------------------|
B|--------------------------------|-------------- 1------ 1--------|
G|------------ 0------------------|------ 0------ 0------ 0--------|
D|------------ 0------------------|---- 0-------- 2------ 2--------|
A|--------------------------------|---------------- 3------ 3------|
E| 3------------ 3-------- 3------|--------------------------------|
http://classicalguitartablature.blogspot.com/
E| 1------ 1------ 1------ 1-- 1--|-------- 1------ 1------ 1------|
B| 1------ 1------ 1------ 1-- 1--|---- 1-- 1------ 1------ 1------|
G| 2------ 2------ 2------ 2-- 2--|---- 2---------- 2------ 2------|
D|--------------------------------|--------------------------------|
A|--------------------------------|--------------------------------|
E| 1------------------------------| 1------------------------------|
http://classicalguitartablature.blogspot.com/
E|-------- 5-- 5------------------|---------------------- 8--------|
B| 8------ 8-- 8------------------|------------------------------11|
G| 5------ 5-- 5---------- 5------|---------------- 5--------------|
D| 7------------------ 7----------|------ 7------------------------|
A| 8------------------------------| 8------------------------------|
E|--------------------------------|--------------------------------|
http://classicalguitartablature.blogspot.com/
E|---------------------- 8--------|--------------------------------|
B|------------10------------------|11----------10------------------|
G|10----------10------------------|10----------10----------10------|
D|10----------10------------------|10----------10------10----------|
A| 8------------------------------| 8------------------------------|
E|--------------------------------|--------------------------------|
http://classicalguitartablature.blogspot.com/
E|-------- 3---- 3---------- 3----|-------------- 5------ 3--------|
B|-------- 6------ 6------ 6-- 6--|-------- 6----------------------|
G|-------- 3------ 3---- 3---- 3--|-------- 3----------------------|
D|---------------------- 5--------|--------------------------------|
A| 6------------------------------| 6------------------------------|
E|--------------------------------|--------------------------------|
http://classicalguitartablature.blogspot.com/
E|------------------------ 5------|--------------------------------|
B| 8---- 6------ 8---- 6-- 6------|---- 8---- 6--------------------|
G| 5---- 5------ 5---- 5-- 5------|------ 5-- 5------------ 5------|
D| 7---- 7------ 7---- 7----------|------ 7-------- 7--------------|
A| 5---------------------------- 5|--------------------------------|
E|--------------------------------|--------------------------------|
http://classicalguitartablature.blogspot.com/
E|--------------------------------|--------------------------------|
B| 3------------------------------|--------------------------------|
G| 3-------------- 3------ 3------| 3-------------- 3--------------|
D| 5-------------- 5------ 5------| 5-------------- 5------ 5------|
A|--------------------------------|--------------------------------|
E| 3------ 3------ 3------ 3------| 3------ 3------ 3------ 3------|
http://classicalguitartablature.blogspot.com/
E|--------------------------------|--------------------------------|
B|-------- 3-- 3------------------|------------------------ 4-- 4--|
G| 5---------- 3------------------|------------------------ 3-- 3--|
D| 3---------- 3------------------|------------------------ 3-- 3--|
A|--------------------------------|--------------------------------|
E| 5------ 5------ 6------ 6------| 6------ 6------ 6------ 6------|
http://classicalguitartablature.blogspot.com/
E|--------------------------------|--------------------------------|
B|------ 3---- 3-------------- 1--|--------------------------------|
G|------ 3---- 3---------- 5-- 2--|--------------------------------|
D|------ 3---- 3-------------- 3--|--------------------------------|
A|--------------------------------|--------------------------------|
E| 6---- 6-------- 6------ 6------| 1------ 1------ 1------ 1------|
http://classicalguitartablature.blogspot.com/
E|--------------------------------|--------------------------------|
B| 3------------------------------|--------------------------------|
G| 3-------------- 3------ 3------| 3-------------- 3------ 3------|
D| 5-------------- 5------ 5------| 5-------------- 5------ 5------|
A|--------------------------------|--------------------------------|
E| 3------ 3------ 3------ 3------| 3------ 3------ 3------ 3------|
http://classicalguitartablature.blogspot.com/
E|--------------------------------|--------------------------------|
B|-------- 3-- 3------------------|------------------------ 4-- 4--|
G| 5------------------------------|------------------------ 3-- 3--|
D| 3------------------------------|------------------------ 5-- 5--|
A|--------------------------------|------------------------ 6---- 6|
E|-- 5---- 5------ 6------ 6------| 6------ 6------ 6--------------|
http://classicalguitartablature.blogspot.com/
E|--------------------------------|-------------- 1------ 4 1------|
B|-------- 3-- 3---------- 1-- 1--|---------- 1 3-------------- 3--|
G|-------- 3-- 3---------- 2-- 2--|---- 1 2------------------------|
D|-------- 3-- 3---------- 3-- 3--|--------------------------------|
A|--------------------------------|--------------------------------|
E|-------- 6-- 6---------- 1-- 1--|--------------------------------|
http://classicalguitartablature.blogspot.com/
E|---- 1--------------------------|--------------------------------|
B|---- 1---------- 1------ 3------| 3------ 4---- 4------------ 3--|
G|---- 2--------------------------| 3------ 3---- 3------------ 3--|
D|--------------------------------| 3------ 5---- 5------------ 3--|
A|--------------------------------| 1------ 3---- 3------ 3---- 3--|
E|---- 1--------------------------|--------------------------------|
http://classicalguitartablature.blogspot.com/
E|--------------------------------|--------------------------------|
B| 3-- 4------------------ 4-- 4--|-------- 3-- 3-------- 1---- 1--|
G| 3-- 3------------------ 3-- 3--|-------- 3-- 3---------- 2-- 2--|
D| 5-- 5------------------ 5-- 5--|-------- 3-- 3---------- 3-- 3--|
A| 3---- 3------ 3-------- 6-- 6--|--------------------------------|
E|--------------------------------|-------- 6-- 6---------- 1-- 1--|
http://classicalguitartablature.blogspot.com/
E|--------------------------------|--------------------------------|
B|-------------- 1-------- 3---- 3|-------- 4-- 4-------------- 3--|
G|---------------- 2------ 3---- 3|-------- 3-- 3-------------- 3--|
D|---------------- 3------ 5---- 3|-------- 5-- 5-------------- 3--|
A|--------------------------------| 1------ 3-- 3-------- 3------ 3|
E|------ 1-------- 1------ 3------|--------------------------------|
http://classicalguitartablature.blogspot.com/
E|--------------------------------|--------------------------------|
B| 4-- 4------------------ 4-- 4--|-------- 3-- 3-------- 1---- 1--|
G| 3-- 3---------- 3------ 3-- 3--|-------- 3-- 3-------- 2---- 2--|
D| 5-- 5------------ 5---- 5-- 5--|-------- 3-- 3-------- 3---- 3--|
A| 3---- 3------ 3-------- 6-- 6--|--------------------------------|
E|--------------------------------|-------- 6-- 6---------- 1-- 1--|
http://classicalguitartablature.blogspot.com/
E|--------------------------------|--------------------------------|
B|---------------- 1------ 3------| 3------ 4-- 4-------------- 3--|
G|---------------- 2------ 3------| 3---------- 3-------------- 3--|
D|---------------- 3------ 5------| 3---------- 5-------------- 3--|
A|--------------------------------| 1------ 3-- 3------ 3------ 3--|
E|---- 1---------- 1------ 3------|--------------------------------|
http://classicalguitartablature.blogspot.com/
E|--------------------------------|--------------------------------|
B| 4-- 4------------------ 4-- 4--|-------- 3-- 3-------- 1---- 1--|
G| 3-- 3------------------ 3-- 3--|-------- 3-- 3-------- 2---- 2--|
D| 5-- 5------------------ 5-- 5--|-------- 3-- 3---------- 3-- 3--|
A| 3-- 3-------- 3-------- 6-- 6--|--------------------------------|
E|--------------------------------|-------- 6-- 6---------- 1-- 1--|
http://classicalguitartablature.blogspot.com/
E|--------------------------------|--------------------------------|
B|---------------- 1------ 3------| 3------ 4-- 4-------------- 3--|
G|---------------- 2------ 3------| 3---------- 3-------------- 3--|
D|---------------- 3------ 5------| 3------ 5-- 5-------------- 3--|
A|--------------------------------| 1------ 3---- 3------ 3---- 3--|
E|---- 1---------- 1------ 3------|--------------------------------|
http://classicalguitartablature.blogspot.com/
E|--------------------------------|--------------------------------|
B| 4-- 4------------------ 4-- 4--|-------- 3-- 3---------- 1-- 1--|
G| 3-- 3------------------ 3-- 3--|-------- 3-- 3---------- 2-- 2--|
D| 5-- 5------------------ 5-- 5--|-------- 3-- 3---------- 3-- 3--|
A| 3-- 3-------- 3-------- 6-- 6--|--------------------------------|
E|--------------------------------|-------- 6---- 6-------- 1---- 1|
http://classicalguitartablature.blogspot.com/
E|--------------------------------|--------------------------------|
B|--------------------------------|--------------------------------|
G|--------------------------------|--------------------------------|
D|--------------------------------|--------------------------------|
A|--------------------------------|--------------------------------|
E|--------------------------------|--------------------------------|
http://classicalguitartablature.blogspot.com/
0 com

I Love How You Love me (BASIC)

Priscilla Paris' tune fingerstyle chord melody guitar BASIC arrangement played in the key of G.

I Love How You Love Me-Priscilla Paris-BASIC Arrangement played in the key of G.
http://classicalguitartablature.blogspot.com/
E|------------------------|------------------------|
B|------------ 0----------|------------ 0------ 0--|
G|-------- 0------ 0------|---------------- 2------|
D|---- 0-------------- 0--|-------- 0--------------|
A|------------------------|------------------------|
E| 3----------------------| 3----------------------|
http://classicalguitartablature.blogspot.com/
E|------------------------|------------------------|
B|------------------ 0----|------------ 0----------|
G| 2------ 2-- 0----------|---------------- 2-- 0--|
D|---- 0---------- 0------|---- 0-- 0--------------|
A|------------------------|------------------------|
E| 3----------------------| 3----------------------|
http://classicalguitartablature.blogspot.com/
http://classicalguitartablature.blogspot.com/
E|------------------------|------------ 0---- 0----|
B|---------------- 0------|---------------- 3------|
G|-------- 0---------- 0--|-------- 0--------------|
D| 2---------- 2----------|---- 2------------------|
A|------------------------|------------------------|
E| 0----------------------| 0----------------------|
http://classicalguitartablature.blogspot.com/
E|------------------------|------------ 0------ 0--|
B| 3------ 1-- 1------ 1--|---------------- 3 1----|
G| 0------ 0-- 0----------|-------- 0--------------|
D| 2-------------- 2------|---- 2------------------|
A| 3----------------------| 3----------------------|
E|------------------------|------------------------|
http://classicalguitartablature.blogspot.com/
E| 0----------------------|-------------- 0---- 2--|
B| 3------ 3-------- 3----|---------- 3------------|
G| 2------ 2------ 2------|-------- 2 2------------|
D|---- 4------ 4----------|---- 4------------------|
A| 5----------------------| 5----------------------|
E|------------------------|------------------------|
http://classicalguitartablature.blogspot.com/
E| 2----------------------|------------------------|
B| 0---- 0---- 3----------| 0------------------ 3--|
G|------ 0---- 0------ 0--|---------------- 0------|
D|---- 0---------- 0------|-------- 0--------------|
A|------------------------|------------------------|
E| 3----------------------| 3----------------------|
http://classicalguitartablature.blogspot.com/
E|------------------------|------------------------|
B| 0---------- 0----------|-------------- 0--------|
G| 0------ 0--------------|-------- 0-- 2---- 2----|
D|---- 2---------- 2------|---- 2------------------|
A|------------------------|------------------------|
E| 0------------------ 0--| 0----------------------|
http://classicalguitartablature.blogspot.com/
E|------------------------|------------------------|
B|------------------------|------------ 0------ 0--|
G| 2------ 0------ 0------|---- 2---------- 2------|
D|---- 2------ 2------ 2--|---- 4-- 0--------------|
A| 3----------------------| 5----------------------|
E|------------------------|------------------------|
http://classicalguitartablature.blogspot.com/
E|------------------------|------------------------|
B|---------------- 0------|------------ 0----------|
G| 2------ 0---------- 0--|-------- 0------ 0------|
D|---- 0------ 0----------|---- 0-------------- 0--|
A|------------------------|------------------------|
E| 3----------------------| 3----------------------|
http://classicalguitartablature.blogspot.com/
E|------------------------|------------------------|
B|------------ 0------ 0--|------------------ 0----|
G| 0-------------- 2------| 2------ 2-- 0----------|
D| 0------ 0--------------|---- 0---------- 0------|
A|------------------------|------------------------|
E| 3----------------------| 3----------------------|
http://classicalguitartablature.blogspot.com/
E|------------------------|------------------------|
B|------------ 0----------|---------------- 0------|
G|---------------- 2-- 0--|-------- 0---------- 0--|
D|---- 0-- 0--------------| 2---------- 2----------|
A|------------------------|------------------------|
E| 3----------------------| 0----------------------|
http://classicalguitartablature.blogspot.com/
E|------------ 0---- 0----|------------------------|
B|---------------- 3------| 3------ 1-- 1------ 1--|
G|-------- 0--------------| 0------ 0-- 0----------|
D|---- 2------------------| 2-------------- 2------|
A|------------------------| 3----------------------|
E| 0----------------------|------------------------|
http://classicalguitartablature.blogspot.com/
E|------------ 0------ 0--| 0----------------------|
B|---------------- 3 1----| 3------ 3-------- 3----|
G|-------- 0--------------| 2------ 2------ 2------|
D|---- 2------------------|---- 4------ 4----------|
A| 3----------------------| 5----------------------|
E|------------------------|------------------------|
http://classicalguitartablature.blogspot.com/
E|-------------- 0---- 2--| 2----------------------|
B|---------- 3------------| 0---- 0---- 3----------|
G|-------- 2 2------------|------ 0---- 0------ 0--|
D|---- 4------------------|---- 0---------- 0------|
A| 5----------------------|------------------------|
E|------------------------| 3----------------------|
http://classicalguitartablature.blogspot.com/
E|------------------------|------------------------|
B| 0------------------ 3--| 0---------- 0----------|
G|---------------- 0------| 0------ 0--------------|
D|-------- 0--------------|---- 2---------- 2------|
A|------------------------|------------------------|
E| 3----------------------| 0------------------ 0--|
http://classicalguitartablature.blogspot.com/
E|------------------------|------------------------|
B|-------------- 0--------|------------------------|
G|-------- 0-- 2---- 2----| 2------ 0------ 0------|
D|---- 2------------------|---- 2------ 2------ 2--|
A|------------------------| 3----------------------|
E| 0----------------------|------------------------|
http://classicalguitartablature.blogspot.com/
E|------------------------|------------------------|
B|------------ 0------ 0--|---------------- 0------|
G|---- 2---------- 2------| 2------ 0---------- 0--|
D|---- 4-- 0--------------|---- 0------ 0----------|
A| 5----------------------|------------------------|
E|------------------------| 3----------------------|
http://classicalguitartablature.blogspot.com/
E|------------------------|------------------------|
B|------------ 0----------|------------------------|
G|-------- 0------ 0------| 0----------------------|
D|---- 0-------------- 0--| 0----------------------|
A|------------------------|------------------------|
E| 3----------------------| 3----------------------|
http://classicalguitartablature.blogspot.com/
0 com

Stand By Your Man (BASIC)

Tammy Wynette's tune fingerstyle chord melody guitar BASIC arrangement played in the key of A.

Stand By Your Man-Tammy Wynette-BASIC Arrangement played in the key of A.
http://classicalguitartablature.blogspot.com/
E|--------------------------------|--------------------------------|
B|------ 2---- 2------ 2-- 2------| 3------------------ 3-- 3------|
G|------ 2---- 2------ 2-- 2------| 2------ 2-- 2------ 2-- 2------|
D|-------- 2-- 2------ 2-- 2------| 4------ 4-- 4------ 4-- 4------|
A| 0-------------- 0--------------| 5-------------- 5--------------|
E|--------------------------------|--------------------------------|
http://classicalguitartablature.blogspot.com/
E|--------------------------------|--------------------------------|
B| 5---- 5---- 5------ 5-------- 3|--------------------------------|
G| 4---- 4---- 4------ 4-------- 4|--------------------------------|
D| 6---- 6---- 6---------------- 4|--------------------------------|
A| 7------------ 7-------- 4---- 2|--------------------------------|
E|--------------------------------|------------ 0 2-------- 4------|
http://classicalguitartablature.blogspot.com/
http://classicalguitartablature.blogspot.com/
E|--------------------------------|--------------------------------|
B|------ 2---------------------- 2|------------ 2------ 2----------|
G|------------ 2-- 2------ 2-- 2--|------ 2------------------ 4 2 1|
D|---- 2-------------- 2----------|---- 2--------------------------|
A|--------------------------------|--------------------------------|
E| 5-------------- 0--------------| 5-------------- 0--------------|
http://classicalguitartablature.blogspot.com/
E|--------------------------------|--------------------------------|
B|---- 0--------------------------|--------------------------------|
G|------------ 1---------- 1------|-------- 1----------------------|
D|-------- 2---------- 2------ 2--|---- 2------ 0------------------|
A|---------------- 2--------------|---------------- 7-- 6----------|
E| 0------------------------------| 0---------------------- 0-- 1--|
http://classicalguitartablature.blogspot.com/
E|--------------------------------|--------------------------------|
B|------ 0-- 0 0-------------- 2--| 3---------- 3------ 0----------|
G|---- 2 2-- 2 2-------- 2--------| 1------ 1------------------ 2--|
D|---- 0------ 0------ 0----------| 2-- 2--------------------------|
A|--------------------------------|--------------------------------|
E| 2-------------- 2--------------| 0-------------- 0--------------|
http://classicalguitartablature.blogspot.com/
E|--------------------------------|--------------------------------|
B| 2-- 2--------------------------|--------------------------------|
G| 2-- 2------------------ 2------|-------- 2----------------------|
D|------------ 2------ 2------ 2--|---- 2------ 2------------------|
A| 0------------------------------| 0-------------- 2------ 4------|
E|---------------- 0--------------|--------------------------------|
http://classicalguitartablature.blogspot.com/
E|---------------- 5-- 5------ 4--|--------------------------------|
B|-------- 7------ 7-- 7------ 7--|---- 7--------------------------|
G|-------- 7----------------------|---- 7------ 7------------------|
D|---- 7------ 7------------------|--------------------------------|
A| 5-------------- 0--------------| 5-------------- 4------ 2------|
E|--------------------------------|--------------------------------|
http://classicalguitartablature.blogspot.com/
E|------------ 0------ 0-- 0------|--------------------------------|
B|-------- 2-- 2------ 2-- 2------| 3-- 2------ 2------------------|
G|-------- 2---------- 2-- 2------| 2-- 2------ 2------ 2------ 0--|
D|---- 2--------------------------| 2-- 2------ 2-------------- 2--|
A| 0------------------------------| 0-------------- 0------ 1------|
E|---------------- 0--------------|--------------------------------|
http://classicalguitartablature.blogspot.com/
E|--------------------------------|--------------------------------|
B|---------- 0 0 0------------ 0 2|---- 0-------------- 0---- 0----|
G|------ 2-- 2 2 2------ 2------ 2|---- 2-------------- 2---- 2-- 1|
D|---- 1------ 1 1---- 1-------- 1|---- 1---- 1--------------------|
A| 2------------------------------| 2------------------------------|
E|---------------- 2--------------|-------------- 2-------------- 0|
http://classicalguitartablature.blogspot.com/
E|--------------------------------|--------------------------------|
B|------ 0------------------------|--------------------------------|
G|------------ 1---------- 1------|-------- 1----------------------|
D|---- 2-------- 0---- 2-------- 2|------ 2---- 2------------------|
A|---------------- 2--------------|--------------------------------|
E|--------------------------------| 0-------------- 2------ 4------|
http://classicalguitartablature.blogspot.com/
E|--------------------------------|--------------------------------|
B|------ 2---------------------- 2|------------ 2------ 2----------|
G|------------ 2-- 2------ 2-- 2--|------ 2------------------ 4 2 1|
D|---- 2-------------- 2----------|---- 2--------------------------|
A|--------------------------------|--------------------------------|
E| 5-------------- 0--------------| 5-------------- 0--------------|
http://classicalguitartablature.blogspot.com/
E|--------------------------------|--------------------------------|
B|---- 0--------------------------|--------------------------------|
G|------------ 1---------- 1------|-------- 1----------------------|
D|-------- 2---------- 2------ 2--|---- 2------ 0------------------|
A|---------------- 2--------------|---------------- 7-- 6----------|
E| 0------------------------------| 0---------------------- 0-- 1--|
http://classicalguitartablature.blogspot.com/
E|--------------------------------|--------------------------------|
B|------ 0-- 0 0-------------- 2--| 3---------- 3------ 0----------|
G|---- 2 2-- 2 2-------- 2--------| 1------ 1------------------ 2--|
D|---- 0------ 0------ 0----------| 2-- 2--------------------------|
A|--------------------------------|--------------------------------|
E| 2-------------- 2--------------| 0-------------- 0--------------|
http://classicalguitartablature.blogspot.com/
E|--------------------------------|--------------------------------|
B| 2-- 2--------------------------|--------------------------------|
G| 2-- 2------------------ 2------|-------- 2----------------------|
D|------------ 2------ 2------ 2--|---- 2------ 2------------------|
A| 0------------------------------| 0-------------- 2------ 4------|
E|---------------- 0--------------|--------------------------------|
http://classicalguitartablature.blogspot.com/
E|---------------- 5-- 5------ 4--|--------------------------------|
B|-------- 7------ 7-- 7------ 7--|---- 7--------------------------|
G|-------- 7----------------------|---- 7------ 7------------------|
D|---- 7------ 7------------------|--------------------------------|
A| 5-------------- 0--------------| 5-------------- 4------ 2------|
E|--------------------------------|--------------------------------|
http://classicalguitartablature.blogspot.com/
E|---------------------------- 0--|--------------------------------|
B|-------- 5---------- 5------ 3--|---- 3--------------------------|
G|-------- 2---------- 2------ 2--|---- 2--------------------------|
D|---- 2------ 2------ 2----------|---- 4------ 4------------------|
A| 0-------------- 2------ 4------| 5-------------- 4------ 2------|
E|--------------------------------|--------------------------------|
http://classicalguitartablature.blogspot.com/
E|--------------------------------|--------------------------------|
B|------ 2------------------ 0 2--| 3---------- 3---- 0------------|
G|------ 2-------------- 2--------|------ 1-------------- 2---- 2--|
D|---- 2------ 2------ 2----------|---- 2--------------------------|
A| 0-------------- 0--------------|------------------------------ 0|
E|--------------------------------| 0------------ 2-------- 4------|
http://classicalguitartablature.blogspot.com/
E|--------------------------------|--------------------------------|
B|-------------------- 3----------|--------------------------------|
G|---- 2------------------ 2------|-------------- 0---- 2------ 4--|
D|------------ 2-------------- 4--|---- 2-------------- 0------ 2--|
A|-------------- 5----------------| 0------------------------------|
E|--------------------------------|-------- 0------ 2------ 4------|
http://classicalguitartablature.blogspot.com/
E|---------------------- 9--------|--------------------------------|
B|--------10----12------10------ 9|------------ 9-- 9------ 9------|
G|-------- 9------ 9------------10|--------10--------------10------|
D|----11------11--11--11------11--|---- 9---------- 9------ 9------|
A| 0------------------------------|--------------------------------|
E|---------------- 0--------------| 9-------------- 9--------------|
http://classicalguitartablature.blogspot.com/
E|-------------- 4---------- 5-- 7| 5---------- 5-- 4---- 2--------|
B|------------ 7-------- 7------ 7|--------------------------------|
G|------ 7------------ 7-------- 7|-------- 7----------------------|
D|---- 7--------------------------|--------------------------------|
A| 5-------------- 0--------------| 5-------------- 4------ 2------|
E|--------------------------------|--------------------------------|
http://classicalguitartablature.blogspot.com/
E|------------ 0 0------------ 0--| 2------------------------------|
B|--------------------------------| 2---------- 5-- 3------ 2------|
G|-------- 2-------------- 2------|-------- 3------ 3------ 3------|
D|---- 2-------------- 2----------|---- 2-------------- 2------ 2--|
A| 0------------------------------|---------------- 4--------------|
E|---------------- 0--------------| 2------------------------------|
http://classicalguitartablature.blogspot.com/
E|--------------------------------|--------------------------------|
B|------------ 0-- 0---- 0--------|--------------------------------|
G|------ 2-------------------- 2--| 1---------- 1-- 2------ 4------|
D|---- 1-------------- 1-------- 2|------------ 2-- 0------ 2------|
A| 2------------------------------|--------------------------------|
E|---------------- 2--------------| 0-------------- 2------ 4------|
http://classicalguitartablature.blogspot.com/
E|---------------------- 9--------|--------------------------------|
B|--------10----12------10------ 9|------------ 9-- 9------ 9------|
G|-------- 9------ 9------------10|--------10--------------10------|
D|----11------11--11--11------11--|---- 9---------- 9------ 9------|
A| 0------------------------------|--------------------------------|
E|---------------- 0--------------| 9-------------- 9--------------|
http://classicalguitartablature.blogspot.com/
E|-------------- 4---------- 5-- 7| 5---------- 5-- 4---- 2--------|
B|------------ 7-------- 7------ 7|--------------------------------|
G|------ 7------------ 7-------- 7|-------- 7----------------------|
D|---- 7--------------------------|--------------------------------|
A| 5-------------- 0--------------| 5-------------- 4------ 2------|
E|--------------------------------|--------------------------------|
http://classicalguitartablature.blogspot.com/
E|-------- 0------ 0-- 2------ 4--|------------ 4-------- 7--------|
B|-------- 2------ 2-- 2------ 3--|-------- 3------10----10--------|
G|------------ 2-- 2-- 2-------- 4|---- 4---------- 7---- 7--------|
D|---- 2--------------------------|---------------- 9--------------|
A| 0------------------------------|--------------------------------|
E|---------------- 0--------------| 0-------------- 7--------------|
http://classicalguitartablature.blogspot.com/
E| 9------------------------------|--------------------------------|
B| 9---------- 9-------------- 9--|------------11------------------|
G|--------10------------10--------|-------- 9-------------- 9------|
D|---- 9-------------- 9----------|----11--------------11------11--|
A|----------------11------------ 9|--------------------------------|
E| 9------------------------------|---------------- 9--------------|
http://classicalguitartablature.blogspot.com/
E| 5---------------------------- 7|---------------------- 7 9 7----|
B| 7---------- 7------------------|------ 9------------------------|
G|-------- 7-------------- 7------|---- 9------ 9------ 9----------|
D|---- 7-------------- 7------ 7--|--------------------------------|
A| 5------------------------------|--------------------------------|
E|---------------- 5--------------| 0-------------- 7--------------|
http://classicalguitartablature.blogspot.com/
E|---------- 9--------------------|--------------------------------|
B|----10----1210------------------|-------- 2------------------ 0--|
G|---- 9------------------ 7------|-------- 2-------------- 1------|
D|-------------------- 7------ 7--|---- 2------ 2------ 2----------|
A| 0------------------------------| 0------------------------------|
E|----------------10--------------|---------------- 0--------------|
http://classicalguitartablature.blogspot.com/
E|--------------------------------|--------------------------------|
B|------ 2------------------------|--------------------------------|
G|------ 2------------------------|--------------------------------|
D|---- 2--------------------------|--------------------------------|
A|---- 0--------------------------|--------------------------------|
E|--------------------------------|--------------------------------|
http://classicalguitartablature.blogspot.com/
0 com

An Old Fashioned Love Song (BASIC)

Three Dog Night's tune fingerstyle chord melody guitar BASIC arrangement played in the key of Am.

An Old Fashioned Love Song-Three Dog Night-BASIC Arrangement played in the key of Am.
http://classicalguitartablature.blogspot.com/
E|--------------------------------|--------------------------------|
B|--------------------------------|-------- 1------------------ 0--|
G|--------------------------------| 2---------- 2---------- 0------|
D|---------------------------- 2--|---- 2-------------- 0----------|
A|--------------------------------| 0------------------------------|
E|--------------------------------|---------------- 3--------------|
http://classicalguitartablature.blogspot.com/
E|---------------- 0---------- 3--| 5------------------------ 7----|
B| 1-- 0-- 1---- 0----------------| 5---------- 5------------ 0----|
G| 2-- 2------ 2 1-------- 1------|-------- 5-------------- 0------|
D| 3-- 3-------- 0---- 0----------|---- 7-------------- 0----------|
A|--------------------------------| 0------------------------------|
E| 1-------------- 0--------------|---------------- 3--------------|
http://classicalguitartablature.blogspot.com/
http://classicalguitartablature.blogspot.com/
E| 8-- 7-- 8-- 7------------------|--------------------------------|
B|10--10--10--10--10------ 9------|--------------------------------|
G| 9-- 9-- 9-- 9-- 7------ 7------|--------------------------------|
D|---------------- 9-- 9----------|--------------------------------|
A| 8------------ 7----------------|------------------------------ 0|
E|--------------------------------| 0------------------------------|
http://classicalguitartablature.blogspot.com/
E|-------------------------- 0----|--------------------------------|
B|---------- 0---- 1---- 3--------| 3-------------------------- 0--|
G|-------- 2------ 0--------------| 2---- 2-------- 1-- 1-- 2------|
D|---- 2-------- 0---- 0----------|-- 3-------- 3------------------|
A|--------------------------------|--------------------------------|
E|---------------- 3--------------| 1-------------- 0--------------|
http://classicalguitartablature.blogspot.com/
E|-------- 0----------------------|--------------------------------|
B| 1-------------------------- 0--|------------ 1-------------- 3--|
G| 2-- 2------------------ 0------|-------- 2-------------- 1------|
D|------------ 2------ 0----------|---- 3-------------- 0----------|
A| 0------------------------------|--------------------------------|
E|---------------- 3--------------| 1-------------- 0--------------|
http://classicalguitartablature.blogspot.com/
E|--------------------------------|--------------------------------|
B| 3-- 1 0---- 1-- 3-- 1---- 0 1--| 3-- 1-- 0-- 1-- 0-- 0-- 1-- 3--|
G| 2-- 2 2---- 2-- 0-- 0----------| 2-- 2-- 2-- 2-- 1-- 1-- 1-- 1--|
D| 2-- 2 2---- 2-- 0-- 0-- 0------| 3-- 3-- 3-- 3-- 2-- 0-- 0------|
A| 0------------------------------|--------------------------------|
E|---------------- 3--------------| 1-------------- 0--------------|
http://classicalguitartablature.blogspot.com/
E|------ 0------------------------|--------------------------------|
B| 1------------------------------|------------ 1-------------- 0--|
G|-- 2-------- 2---------- 2------|-------- 2-------------- 1------|
D| 2-------- 2-------- 2------ 2--|---- 3-------------- 0----------|
A| 0------------------------------|--------------------------------|
E|---------------- 3--------------| 1-------------- 0--------------|
http://classicalguitartablature.blogspot.com/
E|---- 0-- 0-- 0 0----------------|---------- 0--------------------|
B|---- 1-- 1-- 1 0-- 1 1 1-- 3 3--| 3-- 1-- 3---- 0------------ 0--|
G|---- 2-- 2-- 2-- 0 0 0 0-- 0 0--| 2-- 2 2------ 1-------- 1------|
D|---------------------- 0---- 0--| 3-- 3-- 3---- 2-- 0------------|
A| 0------------------------------|--------------------------------|
E|---------------- 3--------------| 1-------------- 0--------------|
http://classicalguitartablature.blogspot.com/
E|---- 0-- 0-- 0-- 0--------------|------------ 0------------------|
B|---- 1-- 1-- 1-- 0 3 1 1-- 3 3--| 3-- 1-- 3------ 0------ 0------|
G|---- 2-- 2-- 2-- 0 0 0 0-- 0 0--| 2-- 2-- 2------ 1---- 1---- 1--|
D|-------------------- 0 0-- 0 0--| 3-- 3-- 3-------- 0------------|
A| 0------------------------------|--------------------------------|
E|---------------- 3--------------| 1-------------- 0--------------|
http://classicalguitartablature.blogspot.com/
E|-------------------------- 0----|--------------------------------|
B|-------------- 1------ 3--------| 3------------------------------|
G|-------- 0 2--------------------| 2------ 2----------------------|
D|---- 2-------------- 2----------|---- 4------ 4------ 4----------|
A| 3-------------- 3-------- 3----| 5------ 0------ 5------ 0-- 5--|
E|-------- 3-------------- 3------|--------------------------------|
http://classicalguitartablature.blogspot.com/
E| 0-------------- 0--------------|--------------------------------|
B| 1 3-- 1-------- 0-- 3-------- 1|--------------------------------|
G|-- 2-- 2---- 2------ 0-- 5-- 2 0|------------ 0------------------|
D|------------------------------ 2|------------ 2------------------|
A|-------- 3-------------- 5------| 3---- 0------------ 0-- 3-- 5--|
E| 1---------- 1-- 3---------- 3--|------------ 3------------------|
http://classicalguitartablature.blogspot.com/
E|-------------------------- 0----|--------------------------------|
B|-------------- 1------ 3--------| 3------------------------------|
G|-------- 0 2--------------------| 2------ 2----------------------|
D|---- 2-------------- 2----------|---- 4------ 4------ 4----------|
A| 3-------------- 3-------- 3----| 5------ 0------ 5------ 0-- 5--|
E|-------- 3-------------- 3------|--------------------------------|
http://classicalguitartablature.blogspot.com/
E| 0-------------- 0--------------|--------------------------------|
B| 1 3-- 1-------- 0-- 3-------- 1|--------------------------------|
G|-- 2-- 2---- 2------ 0-- 5-- 2 0|------------ 0------------------|
D|------------------------------ 2|------------ 2------------------|
A|-------- 3-------------- 5------| 3---- 0------------ 0-- 3-- 5--|
E| 1---------- 1-- 3---------- 3--|------------ 3------------------|
http://classicalguitartablature.blogspot.com/
E|-------------------------- 0----|--------------------------------|
B|-------------- 1------ 3--------| 3------------------------------|
G|-------- 0 2--------------------| 2------ 2----------------------|
D|---- 2-------------- 2----------|---- 4------ 4------ 4----------|
A| 3-------------- 3-------- 3----| 5------ 0------ 5------ 0-- 5--|
E|-------- 3-------------- 3------|--------------------------------|
http://classicalguitartablature.blogspot.com/
E| 0-------------- 0--------------|--------------------------------|
B| 1 3-- 1-------- 0-- 3-------- 1|--------------------------------|
G|-- 2-- 2---- 2------ 0-- 5-- 2 0|------------ 0------------------|
D|------------------------------ 2|------------ 2------------------|
A|-------- 3-------------- 5------| 3---- 0------------ 0-- 3-- 5--|
E| 1---------- 1-- 3---------- 3--|------------ 3------------------|
http://classicalguitartablature.blogspot.com/
E|-------------------------- 0----|--------------------------------|
B|-------------- 1------ 3--------| 3------------------------------|
G|-------- 0 2--------------------| 2------ 2----------------------|
D|---- 2-------------- 2----------|---- 4------ 4------ 4----------|
A| 3-------------- 3-------- 3----| 5------ 0------ 5------ 0-- 5--|
E|-------- 3-------------- 3------|--------------------------------|
http://classicalguitartablature.blogspot.com/
E| 0-------------- 0--------------|--------------------------------|
B| 1 3-- 1-------- 0-- 3-------- 1|--------------------------------|
G|-- 2-- 2---- 2------ 0-- 5-- 2 0|------------ 0------------------|
D|------------------------------ 2|------------ 2------------------|
A|-------- 3-------------- 5------| 3---- 0------------ 0-- 3-- 5--|
E| 1---------- 1-- 3---------- 3--|------------ 3------------------|
http://classicalguitartablature.blogspot.com/
E|--------------------------------|--------------------------------|
B| 1------------------------------|--------------------------------|
G| 0------------------------------|--------------------------------|
D| 2------------------------------|--------------------------------|
A| 3------------------------------|--------------------------------|
E|--------------------------------|--------------------------------|
http://classicalguitartablature.blogspot.com/
0 com

One In A Million You (BASIC)

Billy Graham's tune fingerstyle chord melody guitar BASIC arrangement played in the key of E.

One In A Million You-Larry Graham-BASIC Arrangement played in the key of E.
http://classicalguitartablature.blogspot.com/
E|--------------------------------|-- 4 4-------------------- 2 4 2|
B|-------- 2------------ 4 5 4-- 2|-- 2------------------ 2------ 2|
G|-------- 2------------------ 4 2|---------------------- 2--------|
D|-- 2---- 2---------- 2----------|------------------ 2------------|
A| 2---------- 2-- 2--------------| 2-------- 2-- 2-------------- 2|
E|--------------------------------|--------------------------------|
http://classicalguitartablature.blogspot.com/
E|---------------------------- 2--|--------------------------------|
B|-------- 2-------- 5------------| 4------------------------------|
G|------ 2------------ 2-------- 4| 4 6-- 4---------------- 4------|
D|---- 2------------------ 2---- 6|------ 6------------ 6-- 6---- 7|
A|------------ 2-- 2--------------|--------------------------------|
E|------------------------------ 0|---------- 0-- 0------------ 0 7|
http://classicalguitartablature.blogspot.com/
http://classicalguitartablature.blogspot.com/
E|-------- 7----------------------|--------------------------------|
B| 5------------------------------|--------------------------------|
G| 6------------------------------| 1---- 1---- 1------ 1------ 1--|
D|---- 7--------------------------|---- 4---- 4------ 4------ 4----|
A|--------------------------------|--------------------------------|
E|------------ 7-- 7--------------| 0---------- 0 0-------------- 0|
http://classicalguitartablature.blogspot.com/
E|--------------------------------|--------------------------------|
B|-------------------------- 0-- 2|---- 0-- 0------ 2-- 0-- 0-- 0--|
G|-------------------- 1 1------ 1|---- 1-- 1-- 1-- 1-- 1-- 1-- 1--|
D|---- 1-- 1------------ 1--------| 0-- 0-- 0------ 0-- 0-- 0-- 0--|
A|--------------------------------|--------------------------------|
E|------------ 0-- 0------------ 0|------------ 0-- 0--------------|
http://classicalguitartablature.blogspot.com/
E|--------------------------------|--------------------------------|
B| 0---------------------------- 0|-------- 0---- 0------------ 0--|
G| 2------------------ 2----------|------ 2-- 2------ 2------------|
D|-- 2 2------------------ 2-- 2--|---- 4------------------ 2------|
A| 0-------- 0---- 0--------------| 3-------------- 3--------------|
E|--------------------------------|--------------------------------|
http://classicalguitartablature.blogspot.com/
E|--------------------------------|--------------------------------|
B|--------------------------------|-------- 2-------------- 2------|
G|-- 1---- 1---------- 1----------|---- 2-------------- 2----------|
D|------ 2---------------- 2------| 4------------------ 4------ 4--|
A| 2---------- 2-- 2---------- 4--|--------------------------------|
E|--------------------------------| 2---------- 2-- 2--------------|
http://classicalguitartablature.blogspot.com/
E|--------------------------------|--------------------------------|
B|-------- 2----------------------|-------------------------- 0-- 2|
G|-------- 2-------------------- 1|------ 1------ 1------ 1--------|
D|---- 2-- 2---------- 2-- 2-- 4--|---- 4------ 4---- 4------------|
A| 2---------- 2-- 2--------------|--------------------------------|
E|--------------------------------| 0---------- 0-- 0--------------|
http://classicalguitartablature.blogspot.com/
E|--------------------------------|------------------------------ 0|
B|-- 0----------------------------| 910-- 9---------- 912-- 9---- 2|
G|---- 1------------------ 1------| 9 9-- 9-------- 9 9 9----11----|
D|-------- 1---------- 1------ 2--|1212--12----------1212------11--|
A|--------------------------------|------------------------------ 0|
E| 0---------- 0-- 0--------------| 0---------- 0 0----------------|
http://classicalguitartablature.blogspot.com/
E|--------------------------------|---------------- 5 5-- 4---- 5 7|
B|-------- 2----------------------|-------- 5------ 5 5-- 5---- 5 9|
G|-------- 2-------------- 2------|-------- 5-- 4-- 5 5-- 5---- 5 9|
D|---- 2-------------- 2----------|---- 4--------------------------|
A|------------ 0-- 0---------- 0--| 0---------- 0-- 0--------------|
E|--------------------------------|--------------------------------|
http://classicalguitartablature.blogspot.com/
E|--------------------------------|---------------------------- 4--|
B|------------------------ 7------| 5------ 5-------------- 5------|
G|-- 9---- 9-------------- 8------| 4------ 4-------------- 4------|
D|------ 9---------- 9-- 7---- 7--| 6-- 6-------------- 6----------|
A|------------------------------ 4|------------ 4-- 4--------------|
E| 7---------- 7-- 7---- 8--------|--------------------------------|
http://classicalguitartablature.blogspot.com/
E| 5-- 4-- 5-- 4-- 5-- 4 5-- 4 5--|------------------------------ 4|
B|---- 2-- 2-- 2-- 2-- 2 2-- 2----|------ 2---------------- 2 4----|
G| 2-- 2-- 2-- 2-- 2-- 2 2-- 2----|------ 2-------------------- 4--|
D|--------------------------------|-- 2---------------- 2----------|
A|--------------------------------| 2---------- 2-- 2--------------|
E| 2---------- 2-- 2---------- 2--|--------------------------------|
http://classicalguitartablature.blogspot.com/
E|---------------------- 4-- 5-- 4|-- 4 2--------------------------|
B| 5------ 5------------ 5 5---- 4|-- 4 4---- 4---------- 4--------|
G|-------- 4------------ 4------ 4|-- 4---- 4---------- 4----------|
D|---- 6-------------- 6----------|--------------------------------|
A|--------------------------------|--------------------------------|
E| 0---------- 0-- 0--------------| 0-------------- 0---------- 0--|
http://classicalguitartablature.blogspot.com/
E| 4------ 4------------ 4-- 5 4--|--------------------------------|
B| 3------ 3------------ 3--------| 5-------------------- 5--------|
G|---- 4-------------- 4----------|------ 6-------------- 6--------|
D|--------------------------------|---- 7------------ 7-------- 2--|
A|------------------------------ 0|---------- 0-- 0----------------|
E| 0---------- 2-- 4--------------|--------------------------------|
http://classicalguitartablature.blogspot.com/
E|--------------------------------| 0------------------------------|
B| 5-- 7 5---------------- 7-- 5--| 0-- 0------------------ 0------|
G| 5-- 5 5---- 5---------- 5-- 5--| 1-- 1------ 1---------- 1------|
D| 4-- 4 4-- 4-- 4---- 4-- 4-- 4--|---- 2-- 2---- 2---- 2------ 2--|
A| 0-------------- 5--------------| 2-------------- 2--------------|
E|--------------------------------|--------------------------------|
http://classicalguitartablature.blogspot.com/
E| 5---- 4------------------------| 5------ 4----------------------|
B| 2------ 2------ 5--------------| 2------ 2------ 5--------------|
G| 2-------------- 4---- 4------ 2|------------ 2-- 2------ 4------|
D|---- 2------ 2 6---- 6------ 6--|---- 2---------- 2-- 2------ 2 6|
A|------------------------------ 0|-------------- 2----------------|
E| 2------------ 4----------------|------------------------------ 0|
http://classicalguitartablature.blogspot.com/
E|--------------------------------|-------------- 5-- 4 5 4--------|
B| 5-------------------- 5--------| 5------ 5---- 5-- 5 5 5-- 5----|
G| 4------ 4-------------- 4------| 7------ 7---- 7-- 7 7 7-- 7----|
D|---- 6-------------- 6------ 6--|---- 6-------------------- 6----|
A|--------------------------------|--------------------------------|
E|------------ 0-- 0--------------| 0---------- 0-- 0--------------|
http://classicalguitartablature.blogspot.com/
E|--------------------------------|--------------------------------|
B| 5------ 5-------------- 5------| 5------ 5------ 5-------- 5----|
G| 6------ 6-------------- 6------| 5------ 5------ 5-------- 5----|
D|---- 7-------------- 7----------| 4-- 4---------------- 4--------|
A| 0---------- 0-- 0---------- 0 0|------------ 0-- 0--------------|
E|--------------------------------|--------------------------------|
http://classicalguitartablature.blogspot.com/
E|-------------------------- 0----|--------------------------------|
B|---------------------- 0--------|--------------------------------|
G|---------------------- 1--------|--------------------------------|
D|-- 4------------------ 4--------|--------------------------------|
A|--------------------------------|--------------------------------|
E|---------------------- 0--------|--------------------------------|
http://classicalguitartablature.blogspot.com/