To celebrate the anniversary, I am giving you (finally...) : iPhone LickByNeck !!!!!!

Dreams (BASIC)

The Cranberries' tune fingerstyle chord melody guitar BASIC arrangement played in the key of E.

Dreams-The Cranberries-BASIC Arrangement played in the key of E.
http://classicalguitartablature.blogspot.com/
E|--------------------------------|--------------------------------|
B|-- 0---------- 0------------ 0--|---- 0---------- 0---------- 0--|
G|------ 1---------- 1------------|-------- 1-------- 1------------|
D|---------- 2------------ 2------|------------ 2-------- 2--------|
A|--------------------------------|--------------------------------|
E| 0---- 0------ 0-------- 0------| 0------ 0------ 0------ 0------|
http://classicalguitartablature.blogspot.com/
E|--------------------------------|--------------------------------|
B|---- 0---------- 0---------- 0--|---- 0---------- 0---------- 0--|
G|-------- 1-------- 1------------|-------- 1---------- 1----------|
D|------------ 2---------- 2------|------------ 2---------- 2------|
A| 0------ 0------ 0------ 0------| 0------ 0------ 0------ 0------|
E|--------------------------------|--------------------------------|
http://classicalguitartablature.blogspot.com/
http://classicalguitartablature.blogspot.com/
E|--------------------------------|--------------------------------|
B|---- 0---------- 0---------- 0--|-- 0------------ 0---------- 0--|
G|-------- 2-------- 2------------|-------- 2-------- 2------------|
D|------------ 1---------- 1------|------------ 1---------- 1------|
A| 2------ 2------ 2------ 2------| 2------ 2------ 2------ 2------|
E|--------------------------------|--------------------------------|
http://classicalguitartablature.blogspot.com/
E|--------------------------------|--------------------------------|
B|---- 0---------- 0---------- 0--|-- 0------------ 0---------- 0--|
G|-------- 1---------- 1----------|-------- 1---------- 1----------|
D|------------ 2---------- 2------|------------ 2---------- 2------|
A|--------------------------------|--------------------------------|
E| 0------ 0------ 0------ 0------| 0------ 0------ 0------ 0------|
http://classicalguitartablature.blogspot.com/
E|--------------------------------| 4-------------- 7--------------|
B|---- 0-------- 0------------ 0--| 5-------------- 5--------------|
G|-------- 1-------- 1------------|--------------------------------|
D|------------ 2-------- 2------ 6|---- 6------ 6------ 6------ 6--|
A|--------------------------------|--------------------------------|
E| 0------ 0---- 0-------- 0------| 0------ 0------ 0---- 0--------|
http://classicalguitartablature.blogspot.com/
E| 0------------------------------| 5-- 4------ 2-------------- 2--|
B|---- 0---------- 0---------- 0--| 2-- 2------ 2---- 5---- 4------|
G|------ 1------------ 1----------| 2-- 2------ 2------ 2-- 2------|
D|------------ 2---------- 2------|-------------------- 2-- 2------|
A| 0------ 0------ 0------ 0------| 0------ 0------ 0------ 0------|
E|--------------------------------|--------------------------------|
http://classicalguitartablature.blogspot.com/
E|--------------------------------|------------ 7-------------- 0--|
B|-- 0---------- 0------------ 0--|10-- 9------ 7------ 7-- 9-- 0--|
G|-------- 2-------- 2------------| 8---------- 8------ 8-- 8-- 1--|
D|------------ 1---------- 1------| 7-- 7-------------- 7-- 7------|
A| 2------ 2---- 2-------- 2------|--------------------------------|
E|--------------------------------| 7------ 7------ 7------ 7------|
http://classicalguitartablature.blogspot.com/
E|--------------------------------|--------------------------------|
B|-- 0---------- 0---------- 0----|-- 0---------- 0------------ 0--|
G|-------- 1-------- 1------------|------ 1---------- 1------------|
D|------------ 2---------- 2------|---------- 2---------- 2--------|
A|--------------------------------|--------------------------------|
E| 0------ 0---- 0-------- 0------| 0---- 0-------- 0------ 0------|
http://classicalguitartablature.blogspot.com/
E|--------------------------------| 4-------------- 7--------------|
B|---- 0-------- 0------------ 0--| 5-------------- 5--------------|
G|-------- 1-------- 1------------|--------------------------------|
D|------------ 2-------- 2------ 6|---- 6------ 6------ 6------ 6--|
A|--------------------------------|--------------------------------|
E| 0------ 0---- 0-------- 0------| 0------ 0------ 0---- 0--------|
http://classicalguitartablature.blogspot.com/
E| 0------------------------------| 5-- 4------ 2-------------- 2--|
B|---- 0---------- 0---------- 0--| 2-- 2------ 2---- 5---- 4------|
G|------ 1------------ 1----------| 2-- 2------ 2------ 2-- 2------|
D|------------ 2---------- 2------|-------------------- 2-- 2------|
A| 0------ 0------ 0------ 0------| 0------ 0------ 0------ 0------|
E|--------------------------------|--------------------------------|
http://classicalguitartablature.blogspot.com/
E|--------------------------------|------------ 7-------------- 0--|
B|-- 0---------- 0------------ 0--|10-- 9------ 7------ 7-- 9-- 0--|
G|-------- 2-------- 2------------| 8---------- 8------ 8-- 8-- 1--|
D|------------ 1---------- 1------| 7-- 7-------------- 7-- 7------|
A| 2------ 2---- 2-------- 2------|--------------------------------|
E|--------------------------------| 7------ 7------ 7------ 7------|
http://classicalguitartablature.blogspot.com/
E|--------------------------------|--------------------------------|
B|-- 0---------- 0---------- 0----|-- 0---------- 0------------ 0--|
G|-------- 1-------- 1------------|------ 1---------- 1------------|
D|------------ 2---------- 2------|---------- 2---------- 2--------|
A|--------------------------------|--------------------------------|
E| 0------ 0---- 0-------- 0------| 0---- 0-------- 0------ 0------|
http://classicalguitartablature.blogspot.com/
E|---------------- 4---------- 4--|------------ 4------ 7------ 5--|
B|---- 5------ 7-- 7-- 7------ 7--|---- 7------ 7------ 7------ 2--|
G|---- 4------ 4-- 4-- 4------ 4--|---- 4------ 4-------------- 2--|
D|---- 6------ 6------ 6----------|---- 6--------------------------|
A|--------------------------------|--------------------------------|
E| 0------ 0------ 0------ 0------| 0------ 0------ 0------ 0------|
http://classicalguitartablature.blogspot.com/
E|------------ 4-- 5-- 4------ 5--|---- 4------ 5------ 4------ 7--|
B|------------ 2-- 2-- 2------ 2--|---- 2------ 2------ 2------ 7--|
G|------------ 2-- 2-- 2------ 2--|---- 2------ 2------ 2------ 8--|
D|---- 2--------------------------|--------------------------------|
A| 0------ 0------ 0------ 0------| 0------ 0------ 0------ 0------|
E|--------------------------------|--------------------------------|
http://classicalguitartablature.blogspot.com/
E|--------------------------------| 7-- 7------ 7-------------- 4--|
B|--------------------------------| 7-- 7------ 7------10----------|
G|---------- 8-------- 8------ 8--| 8-- 8------ 8------ 8----------|
D|---- 7------ 7------ 7------ 7--|-------------------- 7----------|
A|--------------------------------|--------------------------------|
E| 7------ 7------ 7------ 7------| 7------ 7------ 7------ 7------|
http://classicalguitartablature.blogspot.com/
E|--------------------------------|--------------------------------|
B|---- 0---------- 0---------- 0--|---- 0---------- 0---------- 0--|
G|-------- 1---------- 1----------|-------- 1-------- 1------------|
D|------------ 2---------- 2------|------------ 2---------- 2------|
A|--------------------------------|--------------------------------|
E| 0------ 0------ 0------ 0------| 0------ 0------ 0------ 0------|
http://classicalguitartablature.blogspot.com/
E|---------------- 4---------- 4--|------------ 4------ 7------ 5--|
B|---- 5------ 7-- 7-- 7------ 7--|---- 7------ 7------ 7------ 2--|
G|---- 4------ 4-- 4-- 4------ 4--|---- 4------ 4-------------- 2--|
D|---- 6------ 6------ 6----------|---- 6--------------------------|
A|--------------------------------|--------------------------------|
E| 0------ 0------ 0------ 0------| 0------ 0------ 0------ 0------|
http://classicalguitartablature.blogspot.com/
E|------------ 4-- 5-- 4------ 5--|---- 4------ 5------ 4------ 7--|
B|------------ 2-- 2-- 2------ 2--|---- 2------ 2------ 2------ 7--|
G|------------ 2-- 2-- 2------ 2--|---- 2------ 2------ 2------ 8--|
D|---- 2--------------------------|--------------------------------|
A| 0------ 0------ 0------ 0------| 0------ 0------ 0------ 0------|
E|--------------------------------|--------------------------------|
http://classicalguitartablature.blogspot.com/
E|--------------------------------| 7-- 7------ 7-------------- 4--|
B|--------------------------------| 7-- 7------ 7------10----------|
G|---------- 8-------- 8------ 8--| 8-- 8------ 8------ 8----------|
D|---- 7------ 7------ 7------ 7--|-------------------- 7----------|
A|--------------------------------|--------------------------------|
E| 7------ 7------ 7------ 7------| 7------ 7------ 7------ 7------|
http://classicalguitartablature.blogspot.com/
E|--------------------------------|--------------------------------|
B|---- 0---------- 0---------- 0--|---- 0---------- 0---------- 0--|
G|-------- 1---------- 1----------|-------- 1-------- 1------------|
D|------------ 2---------- 2------|------------ 2---------- 2------|
A|--------------------------------|--------------------------------|
E| 0------ 0------ 0------ 0------| 0------ 0------ 0------ 0------|
http://classicalguitartablature.blogspot.com/
E| 3------------------------------|-------------------- 7------ 8--|
B|------------ 0------------------|------------ 8-- 8---------- 8--|
G|-------- 0---------- 0----------|-------- 7------------------ 9--|
D|---- 0------------------ 0------|---- 9--------------------------|
A|--------------------------------|--------------------------------|
E| 3------------------------------| 7------------------------------|
http://classicalguitartablature.blogspot.com/
E|--------------------------------|---------------------------- 3--|
B|---- 8-------------- 8----------|------------ 8-- 8--10------ 3--|
G|---------------- 9------ 9------|-------- 9----------------------|
D|------------10--------------10--|----10--------------------------|
A|--------------------------------|--------------------------------|
E| 8------------------------------| 8------------------------------|
http://classicalguitartablature.blogspot.com/
E|--------------------------------|-------------------- 7------ 8--|
B|------------ 3------------------|------------ 8-- 8---------- 8--|
G|-------- 0---------- 0----------|-------- 7------------------ 9--|
D|---- 0------------------ 0------|---- 9--------------------------|
A|--------------------------------|--------------------------------|
E| 3-------------------------- 3--| 7------------------------------|
http://classicalguitartablature.blogspot.com/
E|--------------------------------| 8-------------------------- 7--|
B|---- 8---------- 8--------------|---- 8---- 8---- 8--10----------|
G|------------ 9------ 9------ 9--|---- 9------ 9-- 9--------------|
D|--------10--------------10------|--------------------------------|
A|--------------------------------|--------------------------------|
E| 8------------------------------| 8------------------------------|
http://classicalguitartablature.blogspot.com/
E|--------------------------------| 4-------------- 7--------------|
B|---- 0---------- 0---------- 0--| 5-------------- 5--------------|
G|-------- 1-------- 1------------|--------------------------------|
D|------------ 2---------- 2------|---- 6------ 6------ 6------ 6--|
A|--------------------------------|--------------------------------|
E| 0------ 0------ 0------ 0------| 0------ 0------ 0------ 0------|
http://classicalguitartablature.blogspot.com/
E| 0------------------------------| 5-- 4------ 2-------------- 2--|
B|---- 0---------- 0---------- 0--| 2-- 2------ 2---- 5---- 4------|
G|------ 1------------ 1----------| 2-- 2------ 2------ 2-- 2------|
D|------------ 2---------- 2------|-------------------- 2-- 2------|
A| 0------ 0------ 0------ 0------| 0------ 0------ 0------ 0------|
E|--------------------------------|--------------------------------|
http://classicalguitartablature.blogspot.com/
E|--------------------------------|------------ 7-------------- 0--|
B|-- 0---------- 0------------ 0--|10-- 9------ 7------ 7-- 9-- 0--|
G|-------- 2-------- 2------------| 8---------- 8------ 8-- 8-- 1--|
D|------------ 1---------- 1------| 7-- 7-------------- 7-- 7------|
A| 2------ 2---- 2-------- 2------|--------------------------------|
E|--------------------------------| 7------ 7------ 7------ 7------|
http://classicalguitartablature.blogspot.com/
E|--------------------------------|------------------------------ 0|
B|-- 0---------- 0---------- 0----|-- 0---------- 0------------ 0--|
G|-------- 1-------- 1------------|------ 1---------- 1------------|
D|------------ 2---------- 2------|---------- 2---------- 2--------|
A|--------------------------------|--------------------------------|
E| 0------ 0---- 0-------- 0------| 0---- 0-------- 0------ 0------|
http://classicalguitartablature.blogspot.com/
E|------------------------------ 4|--------------------------------|
B|------------ 0------------------|------------ 5------------------|
G|-------- 1---------- 1------ 1 4|------ 4------------ 4------ 4--|
D|---- 2------------------ 2---- 6|---- 6------------------ 6------|
A|--------------------------------|--------------------------------|
E| 0------------------------------| 4------------------------------|
http://classicalguitartablature.blogspot.com/
E| 5------ 4-- 2-- 4------ 5-- 4--|------------ 2------------------|
B| 2------ 2-- 2-- 2------ 2-- 2--|-------- 2-- 2---------- 5------|
G|---- 2-------------- 2----------|---- 2--------------------------|
D|--------------------------------|--------------------------------|
A| 0------------------------------| 0------------------------------|
E|--------------------------------|--------------------------------|
http://classicalguitartablature.blogspot.com/
E| 2 4 2--------------------------| 2 4 2------------------ 5-- 4--|
B| 2------ 5------ 5---------- 5--| 2------ 5------ 5--------------|
G| 2------ 2-- 2-- 2------ 2------| 2------ 2-- 2------------------|
D|-------- 2-- 2------ 2----------|-------- 2-- 2------------------|
A| 2------------------------------| 2------------------------------|
E|--------------------------------|--------------------------------|
http://classicalguitartablature.blogspot.com/
E|--------------------------------|------------------------------ 0|
B|------------ 0------------------|------------ 0------------------|
G|-------- 1---------- 1------ 1--|-------- 1-------- 1------------|
D|---- 2------------------ 2------|---- 2---------------- 2--------|
A|--------------------------------|--------------------------------|
E| 0------------------------------| 0------------------------------|
http://classicalguitartablature.blogspot.com/
E|------------------------------ 4|--------------------------------|
B|------------ 0------------------|------------ 5------------------|
G|-------- 1---------- 1------ 1 4|------ 4------------ 4------ 4--|
D|---- 2------------------ 2---- 6|---- 6------------------ 6------|
A|--------------------------------|--------------------------------|
E| 0------------------------------| 4------------------------------|
http://classicalguitartablature.blogspot.com/
E| 5------ 4-- 2-- 4------ 5-- 4--|------------ 2------------------|
B| 2------ 2-- 2-- 2------ 2-- 2--|-------- 2-- 2---------- 5------|
G|---- 2-------------- 2----------|---- 2--------------------------|
D|--------------------------------|--------------------------------|
A| 0------------------------------| 0------------------------------|
E|--------------------------------|--------------------------------|
http://classicalguitartablature.blogspot.com/
E| 2 4 2--------------------------| 2 4 2------------------ 5-- 4--|
B| 2------ 5------ 5---------- 5--| 2------ 5------ 5--------------|
G| 2------ 2-- 2-- 2------ 2------| 2------ 2-- 2------------------|
D|-------- 2-- 2------ 2----------|-------- 2-- 2------------------|
A| 2------------------------------| 2------------------------------|
E|--------------------------------|--------------------------------|
http://classicalguitartablature.blogspot.com/
E|--------------------------------|--------------------------------|
B|------------------ 0------------|--------------------------------|
G|------------ 1------------------|--------------------------------|
D|------ 2------------------------|--------------------------------|
A|--------------------------------|--------------------------------|
E|-- 0----------------------------|--------------------------------|
http://classicalguitartablature.blogspot.com/

0 ความคิดเห็น:

แสดงความคิดเห็น