To celebrate the anniversary, I am giving you (finally...) : iPhone LickByNeck !!!!!!

Ecstasy Of Gold (BASIC)

Metallica / Ennio Morricone's tune fingerstyle chord melody guitar BASIC arrangement played in the key of Am.

The Ecstasy Of Gold-Ennio Morricone-BASIC ARRANGEMENT played in the key of Am.
http://classicalguitartablature.blogspot.com/
E|--------------------------------|--------------------------------|
B| 0 1-- 0 1---- 0 1---- 0 1---- 0| 1---- 0 1---- 0 1---- 0 1------|
G| 2 2------ 2------ 2------ 2----|-- 2------ 2------ 2------ 2----|
D| 2-- 2------ 2------ 2------ 2--|---- 2------ 2------ 2------ 2--|
A| 0---------------------------- 0|--------------------------------|
E|--------------------------------|--------------------------------|
http://classicalguitartablature.blogspot.com/
E|-------- 0----------------------|--------------------------------|
B|-------- 1---- 0 1------ 0---- 3| 5------ 3 5---- 3------ 3 5----|
G| 2---------------- 2------ 2----|-- 5------ 5-------- 5---- 5----|
D| 2-- 2---------------- 2------ 2|------ 5---- 5-------- 5------ 5|
A| 0---------------------------- 3|--------------------------------|
E|--------------------------------|--------------------------------|
http://classicalguitartablature.blogspot.com/
http://classicalguitartablature.blogspot.com/
E| 3------------------------------|--------------------------------|
B|-------- 5------ 3------ 3------| 3 5---- 3---------- 5---- 5----|
G| 5------ 5---------- 5------ 5--|-- 5------ 5------ 7-- 7------ 7|
D|---- 5------ 5-------- 5------ 5|------ 5---- 5------------ 7----|
A| 3------------------------------| 3-------------- 5--------------|
E|--------------------------------|--------------------------------|
http://classicalguitartablature.blogspot.com/
E|--------------------------------|--------------------------------|
B|---- 5-------------- 0----------| 0 1---- 0 1---- 0 1---- 0 1----|
G|------ 7-------- 2------ 2------|---- 2------ 2------ 2---- 2----|
D| 7---------- 7-- 3---------- 3--|------ 3------ 3------ 3---- 3--|
A|--------------------------------|--------------------------------|
E|---------------- 1------------ 1|--------------------------------|
http://classicalguitartablature.blogspot.com/
E|--------------------------------|-------- 0----------------------|
B| 0 1-- 0 1------ 0---- 0 1------|-------- 1---- 0 1------ 0------|
G|-- 2------ 2------ 2------ 2----| 2---------------- 2------ 2-- 2|
D|---- 2------ 2------ 2------ 2--| 2-- 2---------------- 2------ 2|
A| 0------------------------------| 0------------------------------|
E|--------------------------------|------------------------------ 3|
http://classicalguitartablature.blogspot.com/
E|------------------------------ 7|-------- 3----------------------|
B| 0------ 0------ 0------ 0------|---------------- 0------ 0------|
G|-- 0-- 2-- 0-- 2-- 0-- 2-- 0----|---------------- 2-- 0-- 2 0-- 2|
D|---- 0------ 0------ 0------ 0--|---- 0------ 0-------- 0------ 0|
A|--------------------------------|--------------------------------|
E|--------------------------------| 3---------------------------- 3|
http://classicalguitartablature.blogspot.com/
E|--------------------------------|-- 0 3 0-------- 0-- 3 0------ 0|
B| 0------ 0------ 0------ 0------|-- 1 1 1 3 1 3 1---- 1 1-- 3-- 0|
G|-- 0-- 2-- 0-- 2-- 0-- 2-- 0----|-- 0 0 0 0 0 0 0---- 0 0-- 0-- 2|
D|---- 0------ 0------ 0------ 0--|-------- 2 2 2-------- 2-- 2----|
A|------------------------------ 3|--------------------------------|
E|--------------------------------|--------------------------------|
http://classicalguitartablature.blogspot.com/
E|--------------------------------|------ 0---------------------- 3|
B|-------- 0----------------------|------ 1---------------------- 1|
G|-------- 2------ 1------ 1------| 2---------------- 2-------- 2 0|
D|---- 0------ 0------ 0------ 0--|---- 2---- 2------ 2-------- 2--|
A|--------------------------------| 0---- 0-------- 0---- 0------ 3|
E| 0-------------- 0--------------|--------------------------------|
http://classicalguitartablature.blogspot.com/
E|------ 0------------------------|--------------------------------|
B|--------------------------------|-------------------- 5---- 5----|
G|------------------ 0------ 0----|-- 0------ 0------ 7-- 7---- 7--|
D|-- 2------ 2------ 2------ 2----|-- 2------ 2------------ 7---- 7|
A|------ 3------ 3------ 3------ 3|------ 3------ 5------ 5------ 5|
E|--------------------------------|--------------------------------|
http://classicalguitartablature.blogspot.com/
E|--------------------------------|---------------------- 0--------|
B|---- 5-------------- 0----------|--------------------------------|
G|------ 7------ 2------ 2--------|---- 2---- 2-- 2----------------|
D|---------- 7-- 3---------- 3----|---- 3---- 3-------- 2---- 2----|
A|------ 5------------------------|-------------- 0------ 0------ 0|
E|-------------- 1------ 1--------| 1------ 1----------------------|
http://classicalguitartablature.blogspot.com/
E|-------------- 7------ 3--------|------------------ 0 3 0------ 0|
B|-------------- 0----------------|-- 0---------------- 1-- 3 1 3 1|
G|-- 2------ 2--------------------|-- 0-------------- 0 0 0---- 0 0|
D|---------- 2-------- 0---- 0----|-- 0------ 0------------ 2-- 2--|
A|------ 0------------------------|-------------- 3-------- 3------|
E|-------------- 3------ 3------ 3|-------- 3----------------------|
http://classicalguitartablature.blogspot.com/
E|---- 3-------- 0----------------|---------------------- 0--------|
B|---- 1 1-- 3--------------------|---------------------- 1--------|
G|---- 0 0-- 0-- 2---------- 2----|-- 1-------- 1-- 2--------------|
D|------ 2-- 2------ 0------ 0----|-- 0-------- 0------ 2------ 2--|
A| 3---- 3------------------------|---------------- 0------ 0------|
E|-------------- 0------ 0------ 0|-------- 0----------------------|
http://classicalguitartablature.blogspot.com/
E|-------------- 3------ 0--------|--------------------------------|
B|-------------- 1------ 1--------|-------------------- 5---- 5----|
G|---- 2---- 2-- 0----------------|---- 0---- 0------ 7-- 7---- 7 2|
D|---- 2---- 2------ 2-------- 2--|-- 2------ 2------------ 7------|
A| 0------ 0---- 3------ 3------ 3|------ 3------ 5------ 5--------|
E|--------------------------------|------------------------------ 1|
http://classicalguitartablature.blogspot.com/
E|-------------- 1------ 5------ 3|------------------------------ 7|
B|------ 1------ 1------ 1------ 1|---------------------- 9------ 9|
G|------ 2---------------------- 0|---- 0---- 0-- 9----------------|
D|-- 3------ 3------ 3------ 3----|---- 2-------------- 9---- 9----|
A|------------------------------ 3|------ 3------------------------|
E|------ 1-------- 1---- 1--------|-------------- 0------ 0------ 0|
http://classicalguitartablature.blogspot.com/
E|------10------ 8---------- 5--10|---------------------- 0--------|
B|-------------- 5---------- 5--10|----------10---------- 1--------|
G|---------- 7-- 5---------- 5--11|----------11-- 2-------------- 2|
D|-- 9-------------- 7------------|----12----12-- 2----------------|
A|-------------- 0------ 0--------|-------------- 0---- 0 0---- 0--|
E|------ 0------------------------|10----10------------------------|
http://classicalguitartablature.blogspot.com/
E|------ 0------ 3------ 0------ 3|------ 0-------------- 5--------|
B|---------------------- 1------ 1|------ 1-------------- 7--------|
G|-------------- 0------ 0------ 0|------ 0------ 7-------------- 7|
D|--------------------------------|-------------- 7----------------|
A| 0 0-- 0-- 0-- 3-- 3-- 3---- 3--| 3 3-- 3-- 3-- 5-- 5-- 5-- 5-- 5|
E|--------------------------------|--------------------------------|
http://classicalguitartablature.blogspot.com/
E|------ 5-------- 8---- 5------ 8|------ 5-------------- 0--------|
B|------ 7-------------- 6------ 6|------ 6-------------- 1--------|
G|---------------- 5---- 5------ 5|------ 5------ 2-------------- 2|
D|--------------------------------|-------------- 2----------------|
A|---- 5-- 5-- 5-- 8 8-- 8-- 8-- 8|-- 8-- 8-- 8-- 0---- 0 0---- 0--|
E|--------------------------------|--------------------------------|
http://classicalguitartablature.blogspot.com/
E|------ 0------ 3------ 0------ 3|------ 0-------------- 5--------|
B|---------------------- 1------ 1|------ 1-------------- 7--------|
G|-------------- 0------ 0------ 0|------ 0------ 7-------------- 7|
D|--------------------------------|-------------- 7----------------|
A| 0 0-- 0-- 0-- 3-- 3-- 3---- 3--| 3 3-- 3-- 3-- 5-- 5-- 5-- 5-- 5|
E|--------------------------------|--------------------------------|
http://classicalguitartablature.blogspot.com/
E|------ 5-------- 8---- 5------ 8|------ 5------ 8------ 5------ 8|
B|------ 7-------------- 6------ 6|------ 6------ 5------ 5------ 5|
G|---------------- 5---- 5------ 5|------ 5------ 5------ 5------ 5|
D|--------------------------------|--------------------------------|
A|---- 5-- 5-- 5-- 8 8-- 8-- 8-- 8|-- 8-- 8-- 8-- 0-- 0-- 0-- 0-- 0|
E|--------------------------------|--------------------------------|
http://classicalguitartablature.blogspot.com/
E|------ 5------ 5----------------|--------------------------------|
B|------ 5------ 5----------------|--------------------------------|
G|------ 5------ 5----------------|--------------------------------|
D|--------------------------------|--------------------------------|
A|-- 0-- 0-- 0-- 0----------------|--------------------------------|
E|--------------------------------|--------------------------------|
http://classicalguitartablature.blogspot.com/

0 ความคิดเห็น:

แสดงความคิดเห็น