To celebrate the anniversary, I am giving you (finally...) : iPhone LickByNeck !!!!!!

Everything (BASIC)

Michael Buble's tune fingerstyle chord melody guitar BASIC arrangement played in the key of G.

Everything-Michael Buble-BASIC Arrangement played in the key of G.
http://classicalguitartablature.blogspot.com/
E|------ 7------------------------|---- 7------ 5------------------|
B|--------------------------------|------------ 8------ 8------ 8--|
G| 7---------------- 7-------- 6--|------------ 8------------------|
D|---- 9---------------------- 5--|--------------------------------|
A|10---------- 7------------------|--------------------------------|
E|--------------------------------| 5---------- 8------------------|
http://classicalguitartablature.blogspot.com/
E|-------- 7----------------------|---- 7------ 5------------------|
B|--------------------------------|------------ 8------ 8------ 8--|
G|---- 7-------------- 7------ 6--|------------ 8------------------|
D|-------------------- 9------ 5--|--------------------------------|
A|10---------- 7------------------|--------------------------------|
E|--------------------------------| 5---------- 8------------------|
http://classicalguitartablature.blogspot.com/
http://classicalguitartablature.blogspot.com/
E|-------- 7----------------------|-------- 7-- 5------------------|
B|--------------------------------|---- 5------ 5------ 8------ 8--|
G|---- 7-------------- 7------ 6--|--------------------------------|
D|-------------------- 9------ 5--|--------------------------------|
A|10---------- 7------------------|--------------------------------|
E|--------------------------------| 5---------- 5------------------|
http://classicalguitartablature.blogspot.com/
E|--------------------------------|--------------------------------|
B|------12----10------ 8------ 8--|-------- 8-- 5------------------|
G|---- 8------ 8------ 8------ 7--|------------ 5-------------- 2--|
D|10----------10------10------ 9--|---- 9------ 5------ 9-- 7------|
A|--------------------------------|10---------- 5------------------|
E| 8----------10------------------|--------------------------------|
http://classicalguitartablature.blogspot.com/
E|--------------------------------|--------------------------------|
B|------------------ 0------------|-------------------- 0----------|
G| 0-- 0---------------- 2---- 2 0|-- 0-------- 2---------- 2-- 2--|
D|--------------------------------| 2---------- 2-------------- 1--|
A|--------------------------------| 0---------- 0------------------|
E| 3---------- 0------------------|--------------------------------|
http://classicalguitartablature.blogspot.com/
E|--------------------------------|--------------------------------|
B|--------------------------------|------------------ 0------------|
G|---- 0 0-------- 0-- 0---- 0----|------------------------ 2-- 2--|
D|---------- 2--------------------|-- 0 2--------------------------|
A| 3---------- 5------------------|---------- 5--------------------|
E|------------------------------ 3|--------------------------------|
http://classicalguitartablature.blogspot.com/
E|--------------------------------|--------------------------------|
B|---- 0-------------- 0----------|---- 0------------------ 0------|
G| 0---------------------- 2-- 2--| 0------------------ 0------ 2--|
D|--------------------------------| 2------------------------------|
A|--------------------------------| 0---------- 0------------------|
E| 3---------- 0------------------|--------------------------------|
http://classicalguitartablature.blogspot.com/
E|--------------------------------|--------------------------------|
B|------------ 0------ 0----------|---------------------- 0-- 3----|
G| 2-- 0------ 2-------------- 2--|---- 0------------ 0------------|
D| 1------ 1-- 4------------------|-------- 0----------------------|
A| 3---------- 5------------------|------------ 2------------------|
E|--------------------------------| 3------------------------------|
http://classicalguitartablature.blogspot.com/
E|--------------------------------|--------------------------------|
B| 3------------------ 3------ 0--|------------------------ 0-- 3--|
G| 0------ 0---------- 0----------|-------- 0---------- 0----------|
D|---- 2-------------- 4----------|---- 0--------------------------|
A| 3---------- 5------------------|--------------------------------|
E|--------------------------------| 3---------- 0------------------|
http://classicalguitartablature.blogspot.com/
E| 2------------------------------|------ 7-------------------- 0--|
B|-------------------- 8------ 8--|------------10------ 8------ 0--|
G|-------- 0---------- 5------ 7--|-------------------- 7------ 0--|
D|---- 2-------------- 5------ 9--|---- 9------ 9------ 9----------|
A| 3---------- 5------------------|10------------------------------|
E|--------------------------------|------------ 7------------------|
http://classicalguitartablature.blogspot.com/
E|--------------------------------|--------------------------------|
B|------------ 0-- 3-- 3------ 3--|-- 0------ 0-- 3-- 0------------|
G|-------- 0 2---------------- 0--|---------------------------- 2--|
D|---- 2---- 1---------------- 0--|------ 0-------------------- 2--|
A| 3---------- 2------------------|---------- 5--------------------|
E|--------------------------------| 0------------------------------|
http://classicalguitartablature.blogspot.com/
E|--------------------------------|--------------------------------|
B|---------- 0-- 3---- 0----------|------------ 0------------------|
G|------ 2-------------------- 2 0|------------ 2-- 2-- 0-- 2-- 0--|
D|---- 2---------------------- 1--|---- 1------ 4------------------|
A| 0---------- 0------------------| 3---------- 5------------------|
E|--------------------------------|--------------------------------|
http://classicalguitartablature.blogspot.com/
E|-------- 7----------------------|---- 7------ 5------------------|
B|-------------------- 3----------|------------ 8------ 8------ 8--|
G|-------------------- 0------ 6--|------------ 8------------------|
D|---- 0-------------- 2------ 5--|--------------------------------|
A|--------------------------------|--------------------------------|
E| 3---------- 0------------------| 5---------- 8------------------|
http://classicalguitartablature.blogspot.com/
E|-------- 7----------------------|---- 7------ 5------------------|
B|--------------------------------|------------ 8---- 8------------|
G|---- 7-------------- 7------ 6--|------------ 8-------------- 7--|
D|-------------------- 9------ 5--|--------------------------------|
A|10---------- 7------------------|--------------------------------|
E|--------------------------------| 5---------- 8------------------|
http://classicalguitartablature.blogspot.com/
E| 3------------------------------|-------------- 3------------ 3--|
B| 3-------------- 3---------- 3--| 2------------------------------|
G|-------- 0-------------- 0------| 0------ 0-------------- 0------|
D|---- 0------ 2------ 2----------|---- 2-------------- 2----------|
A|--------------------------------| 0---------- 0------------------|
E| 3---------- 0------------------|--------------------------------|
http://classicalguitartablature.blogspot.com/
E|--------------------------------|--------------------------------|
B| 1------------ 3------------ 0--|-------------------------- 3----|
G| 2---- 2------ 0------ 0--------|-- 2 0-------------- 0----------|
D|-- 1-------------- 4------------|---------------- 4--------------|
A| 3-------- 5--------------------|---------- 5--------------------|
E|--------------------------------| 3------------------------------|
http://classicalguitartablature.blogspot.com/
E| 3------------------------------|-------------- 3------------ 3--|
B| 3-------------- 3---------- 3--| 2------------------------------|
G|-------- 0-------------- 0------| 0------ 0-------------- 0------|
D|---- 0------ 2------ 2----------|---- 2-------------- 2----------|
A|--------------------------------| 0---------- 0------------------|
E| 3---------- 0------------------|--------------------------------|
http://classicalguitartablature.blogspot.com/
E|--------------------------------|--------------------------------|
B|-- 1---------- 0-- 1------ 3----|-------------------------- 0----|
G|-- 2---------------------- 0----|--------------------------------|
D| 1-------- 1------------ 4------|--------------------------------|
A| 3---------------------- 5------|--------------------------------|
E|--------------------------------|--------------------------------|
http://classicalguitartablature.blogspot.com/
E|--------------------------------|--------------------------------|
B|------------------------ 0------|--------------------------------|
G|-- 2---------------------- 2-- 0|--------------------------------|
D|--------------------------------|--------------------------------|
A|--------------------------------|--------------------------------|
E|------------------------ 3------|--------------------------------|
http://classicalguitartablature.blogspot.com/

0 ความคิดเห็น:

แสดงความคิดเห็น