To celebrate the anniversary, I am giving you (finally...) : iPhone LickByNeck !!!!!!

Firework (BASIC)

Katy Perry's tune fingerstyle chord melody guitar BASIC arrangement played in the key of G.

Firework-Katy Perry-BASIC Arrangement played in the key of G.
http://classicalguitartablature.blogspot.com/
E|--------------------------------|--------------------------------|
B| 0-------------- 0--------------| 1------ 0------ 1------ 0------|
G|-------- 2-------------- 2---- 2|-------- 2------ 2--------------|
D|---- 0------ 0------ 0------ 0 2|-- 2-------- 2------ 2------ 2--|
A|--------------------------------| 0------------------------------|
E| 3------------------------------|--------------------------------|
http://classicalguitartablature.blogspot.com/
E|--------------------------------|--------------------------------|
B|--------------------------------|--------------------------------|
G| 2------ 0------ 2------ 0------| 2------ 0------ 2---- 0--------|
D|---- 2------ 2------ 2------ 2--|---- 2------ 2------ 2---- 2----|
A|--------------------------------| 3------------------------------|
E| 0------------------------------|--------------------------------|
http://classicalguitartablature.blogspot.com/
http://classicalguitartablature.blogspot.com/
E|--------------------------------|--------------------------------|
B| 0-------------- 0--------------| 1------ 0------ 1------ 0------|
G|-------- 2-------------- 2------| 2------------------------------|
D|---- 0------ 0------ 0------ 0 2|---- 2------ 2------ 2------ 2--|
A|--------------------------------| 0------------------------------|
E| 3------------------------------|--------------------------------|
http://classicalguitartablature.blogspot.com/
E|--------------------------------|--------------------------------|
B|--------------------------------|--------------------------------|
G| 2------ 0------ 2------ 0------| 2------ 0------ 2------ 0------|
D|---- 2------ 2------ 2------ 2--|---- 2------ 2------ 2------ 2--|
A|--------------------------------| 3------------------------------|
E| 0------------------------------|------------------------------ 3|
http://classicalguitartablature.blogspot.com/
E|--------------------------------|--------------------------------|
B|-------- 0-- 3-- 3-- 0-- 0------|--------------------------------|
G|-------- 0-- 0-- 0-- 0-- 0------|---- 0-- 0-- 2-- 2-- 0-- 0------|
D|---- 0---------- 0-- 0------ 0--|---- 2-- 2-- 2-- 2-- 2-- 2-- 2--|
A|--------------------------------| 0-------------- 0--------------|
E|---------------- 3--------------|--------------------------------|
http://classicalguitartablature.blogspot.com/
E|--------------------------------|--------------------------------|
B|--------------------------------|-------------------- 0-- 0------|
G|---- 0-- 0-- 2-- 2-- 0-- 0------|------ 0---- 0-- 2 0------------|
D|---- 2-- 2-- 2-- 2-- 2------ 2--|---- 2---------- 2--------------|
A|------------------------------ 3|---------------- 3--------------|
E| 0-------------- 0--------------|------------------------------ 3|
http://classicalguitartablature.blogspot.com/
E|--------------------------------|--------------------------------|
B|-------- 0-- 3-- 3-- 0-- 0------|--------------------------------|
G|-------- 0-- 0-- 0-- 0-- 0------|---- 0-- 0-- 2-- 2-- 0-- 0------|
D|---- 0---------- 0-- 0------ 0--|---- 2-- 2-- 2-- 2-- 2-- 2-- 2--|
A|--------------------------------| 0-------------- 0--------------|
E|---------------- 3--------------|--------------------------------|
http://classicalguitartablature.blogspot.com/
E|--------------------------------|--------------------------------|
B|--------------------------------|-------------------- 0-- 0------|
G|---- 0-- 0-- 2-- 2-- 0-- 0------|------ 0---- 0-- 2 0------------|
D|---- 2-- 2-- 2-- 2-- 2------ 2--|---- 2---------- 2--------------|
A|------------------------------ 3|---------------- 3--------------|
E| 0-------------- 0--------------|--------------------------------|
http://classicalguitartablature.blogspot.com/
E|------------ 3-- 3--------------|-------- 0------ 0-- 3-- 3------|
B|-------- 3-- 3-- 3-- 3-- 3------|---- 3-- 1-- 3-- 1-- 1-- 1------|
G|-------- 0---------- 0-- 0------|---- 0------ 0-- 0-- 0-- 0------|
D|---- 0---------------------- 0--|---- 2---------------------- 2--|
A|--------------------------------| 0-------------- 0--------------|
E| 3-------------- 3--------------|--------------------------------|
http://classicalguitartablature.blogspot.com/
E|------------ 3-- 3--------------| 0-------------- 0--------------|
B|-------- 3-- 3-- 3-- 3-- 3-- 3--| 0-- 3-- 3-- 0-- 0------ 3------|
G|-------- 0------ 0-- 0-- 0-- 0--| 0-- 0-- 0-- 0-- 0------ 0------|
D|---- 2------------------ 2-- 2--|---- 2-- 2-- 2------ 2------ 2--|
A|--------------------------------| 3-------------- 3--------------|
E| 0------------------------------|--------------------------------|
http://classicalguitartablature.blogspot.com/
E|--------------------------------|--------------------------------|
B|-------- 0-- 3-- 3-- 0-- 0------|--------------------------------|
G|-------- 0-- 0-- 0-- 0-- 0------|---- 0-- 0-- 2-- 2-- 0-- 0------|
D|---- 0---------- 0-- 0-- 0-- 0--|---- 2-- 2-- 2-- 2-- 2-- 2-- 2--|
A|--------------------------------| 0-------------- 0--------------|
E| 3------------------------------|--------------------------------|
http://classicalguitartablature.blogspot.com/
E|--------------------------------|--------------------------------|
B|--------------------------------|---------------------------- 0--|
G|---- 0-- 0-- 2-- 2-- 0-- 0------|---- 0-- 0-- 2-- 2-- 0-- 0------|
D|---- 2-- 2-- 2-- 2-- 2----------|---- 2-- 2-- 2-- 2-- 2-- 2------|
A|------------------------------ 3|---------------- 3--------------|
E| 0-------------- 0--------------|--------------------------------|
http://classicalguitartablature.blogspot.com/
E|--------------------------------|--------------------------------|
B|---------------- 0---------- 1--|------ 0-------- 1------ 0-- 3--|
G|-------- 2-------------- 2-- 2--|------------------------ 2------|
D|---- 0------ 0---- 0-------- 2--|---- 2------ 2------ 2----------|
A|--------------------------------| 0-------------- 0--------------|
E| 3-------------- 3--------------|--------------------------------|
http://classicalguitartablature.blogspot.com/
E|---------------------------- 0--|---------------------- 3---- 3--|
B|------------------------ 1------|--------------------------------|
G| 2------ 0------ 2---- 0--------| 2------ 0------ 2--------------|
D|---- 2------ 2------ 2----------|---- 2---- 2-------- 2----------|
A|--------------------------------| 3-------------- 3--------------|
E| 0-------------- 0--------------|--------------------------------|
http://classicalguitartablature.blogspot.com/
E|---------------------------- 5--|---------------------------- 7--|
B| 0-------------- 0------ 3-- 5--|------------ 5------ 8-- 8-- 8--|
G|-------- 2----------------------|-------- 5---------- 5-- 5------|
D|---- 0------ 0------ 0----------|---- 7-------------- 7-- 7------|
A|--------------------------------| 0-------------- 0--------------|
E| 3-------------- 3--------------|--------------------------------|
http://classicalguitartablature.blogspot.com/
E|------------ 7------------------|----------------10 8------------|
B|---------------- 8------ 8------|-------- 8------ 8----12--10----|
G|-------- 9------ 9------ 9-- 9--|---------------- 9--------------|
D|---- 9---------- 9------ 9------|----10------12------------------|
A| 7-------------- 7--------------|--------------------------------|
E|--------------------------------| 8-------------- 8--------------|
http://classicalguitartablature.blogspot.com/
E| 5---------------------- 3-- 7--|----------------10-- 8-- 7------|
B| 0---------------------- 0-- 5--|---------------- 8-- 8-- 8--10--|
G|---------------------------- 5--|---- 5------ 7-- 9-- 9-- 9-- 9--|
D|---- 0------ 0------ 0----------|---------------------------- 7--|
A|--------------------------------| 0------ 0------ 0------ 0------|
E| 3------ 3------ 3------ 3------|--------------------------------|
http://classicalguitartablature.blogspot.com/
E|--------------------------------|----------------10 8------------|
B|10-------------------- 8----12--|---------------- 8 8----1210----|
G| 7-------------------- 7---- 9--|-------------- 9-- 9---- 9 9----|
D|---- 9------ 9---- 9-- 9----10--|----10------12----------1010----|
A|--------------------------------|--------------------------------|
E| 0------ 0------ 0------ 0------| 8------ 8------ 8------ 8------|
http://classicalguitartablature.blogspot.com/
E| 5---------- 5---------- 5------|----------------10-- 8-- 7------|
B| 3---------- 3---------- 3------|---------------- 8-- 8-- 8--10--|
G| 0---------- 0------ 0----------|---- 7------ 7-- 9-- 9-- 9-- 9--|
D|---- 0---------------------- 0--|---- 7------ 7-------------- 7--|
A|--------------------------------| 0------ 0------ 0------ 0------|
E| 3------ 3------ 3------ 3------|--------------------------------|
http://classicalguitartablature.blogspot.com/
E|--------------------------------|----------------10-- 8----------|
B|10----------10--------10---- 8--|---------------- 8-- 8--12--10--|
G| 7---------- 7-------- 7---- 9--|---------------- 9-- 9-- 9-- 9--|
D| 9-- 9------ 9------ 9-- 9--10--|----10------12----------10--10--|
A|--------------------------------|--------------------------------|
E| 0------ 0------ 0------ 0------| 8------ 8------ 8------ 8------|
http://classicalguitartablature.blogspot.com/
E| 5---------------------- 3-- 7--|----------------10-- 8-- 7------|
B| 0---------------------- 0-- 5--|---------------- 8-- 8-- 8--10--|
G|---------------------------- 5--|---- 5------ 7-- 9-- 9-- 9-- 9--|
D|---- 0------ 0------ 0----------|---------------------------- 7--|
A|--------------------------------| 0------ 0------ 0------ 0------|
E| 3------ 3------ 3------ 3------|--------------------------------|
http://classicalguitartablature.blogspot.com/
E|--------------------------------|----------------10 8------------|
B|10-------------------- 8----12--|---------------- 8 8----1210----|
G| 7-------------------- 7---- 9--|-------------- 9-- 9---- 9 9----|
D|---- 9------ 9---- 9-- 9----10--|----10------12----------1010----|
A|--------------------------------|--------------------------------|
E| 0------ 0------ 0------ 0------| 8------ 8------ 8------ 8------|
http://classicalguitartablature.blogspot.com/
E| 5---------- 5---------- 5------|----------------10-- 8-- 7------|
B| 3---------- 3---------- 3------|---------------- 8-- 8-- 8--10--|
G| 0---------- 0------ 0----------|---- 7------ 7-- 9-- 9-- 9-- 9--|
D|---- 0---------------------- 0--|---- 7------ 7-------------- 7--|
A|--------------------------------| 0------ 0------ 0------ 0------|
E| 3------ 3------ 3------ 3------|--------------------------------|
http://classicalguitartablature.blogspot.com/
E|---------------------------- 3--|--------------------------------|
B|10----------10--------10---- 1--|--------------------------------|
G| 7---------- 7-------- 7---- 0--|---- 0------ 0------ 0------ 0--|
D| 9-- 9------ 9------ 9-- 9------|---- 2------ 2------ 2----------|
A|--------------------------------| 3------ 3---- 3-------- 3------|
E| 0------ 0------ 0------ 0------|--------------------------------|
http://classicalguitartablature.blogspot.com/
E| 3---------- 2------------------|---- 3-- 3-- 3-- 3-- 3-- 3-- 3--|
B|-------- 0---------- 0-- 3------|---- 3-- 3-- 3-- 3-- 3-- 3-- 3--|
G|---- 0---------- 0--------------|--------------------------------|
D|---------------------------- 0--|--------------------------------|
A|--------------------------------|--------------------------------|
E| 0------------------------------| 0-------------- 0--------------|
http://classicalguitartablature.blogspot.com/
E| 3---------- 2------------------|---- 3-- 3-- 3-- 3-- 3-- 3-- 3--|
B| 0------ 0-------- 0---- 3------|---- 0-- 0-- 0-- 0-- 0-- 0-- 0--|
G|---- 0---------- 0--------------|-------- 0----------------------|
D|---------------------------- 0--|--------------------------------|
A| 3------------------------------| 3-------------- 3--------------|
E|--------------------------------|--------------------------------|
http://classicalguitartablature.blogspot.com/
E| 7---------- 5---------- 3------|---- 3-- 3-- 3-- 3-- 3-- 3-- 3--|
B| 0------ 0---------- 0----------|---- 0-- 0-- 0-- 0-- 0-- 0-- 0--|
G|---- 0---------- 0---------- 0--|---- 0-- 0-- 0-- 0-- 0-- 0-- 0--|
D|--------------------------------|--------------------------------|
A|--------------------------------|--------------------------------|
E| 3------------------------------| 3------------------------------|
http://classicalguitartablature.blogspot.com/
E| 7------------------------------|--------------10-- 8-- 7--------|
B| 7----------10-------- 7--------|----------------------------10--|
G|-------- 7-------- 7------------|------ 7---- 7------------------|
D|---- 7---------- 7---------- 7--|-- 7----------------------------|
A|--------------------------------|--------------------------------|
E|10----------------------------10|--------------------------------|
http://classicalguitartablature.blogspot.com/
E| 5---------------------- 3-- 7--|----------------10-- 8-- 7------|
B| 0---------------------- 0-- 5--|---------------- 8-- 8-- 8--10--|
G|---------------------------- 5--|---- 5------ 7-- 9-- 9-- 9-- 9--|
D|---- 0------ 0------ 0----------|---------------------------- 7--|
A|--------------------------------| 0------ 0------ 0------ 0------|
E| 3------ 3------ 3------ 3------|--------------------------------|
http://classicalguitartablature.blogspot.com/
E|--------------------------------|----------------10 8------------|
B|10-------------------- 8----12--|---------------- 8 8----1210----|
G| 7-------------------- 7---- 9--|-------------- 9-- 9---- 9 9----|
D|---- 9------ 9---- 9-- 9----10--|----10------12----------1010----|
A|--------------------------------|--------------------------------|
E| 0------ 0------ 0------ 0------| 8------ 8------ 8------ 8------|
http://classicalguitartablature.blogspot.com/
E| 5---------- 5---------- 5------|----------------10-- 8-- 7------|
B| 3---------- 3---------- 3------|---------------- 8-- 8-- 8--10--|
G| 0---------- 0------ 0----------|---- 7------ 7-- 9-- 9-- 9-- 9--|
D|---- 0---------------------- 0--|---- 7------ 7-------------- 7--|
A|--------------------------------| 0------ 0------ 0------ 0------|
E| 3------ 3------ 3------ 3------|--------------------------------|
http://classicalguitartablature.blogspot.com/
E|--------------------------------|----------------10-- 8----------|
B|10----------10--------10---- 8--|---------------- 8-- 8--12--10--|
G| 7---------- 7-------- 7---- 9--|---------------- 9-- 9-- 9-- 9--|
D| 9-- 9------ 9------ 9-- 9--10--|----10------12----------10--10--|
A|--------------------------------|--------------------------------|
E| 0------ 0------ 0------ 0------| 8------ 8------ 8------ 8------|
http://classicalguitartablature.blogspot.com/
E| 5---------------------- 3-- 7--|----------------10-- 8-- 7------|
B| 0---------------------- 0-- 5--|---------------- 8-- 8-- 8--10--|
G|---------------------------- 5--|---- 5------ 7-- 9-- 9-- 9-- 9--|
D|---- 0------ 0------ 0----------|---------------------------- 7--|
A|--------------------------------| 0------ 0------ 0------ 0------|
E| 3------ 3------ 3------ 3------|--------------------------------|
http://classicalguitartablature.blogspot.com/
E|--------------------------------|----------------10 8------------|
B|10-------------------- 8----12--|---------------- 8 8----1210----|
G| 7-------------------- 7---- 9--|-------------- 9-- 9---- 9 9----|
D|---- 9------ 9---- 9-- 9----10--|----10------12----------1010----|
A|--------------------------------|--------------------------------|
E| 0------ 0------ 0------ 0------| 8------ 8------ 8------ 8------|
http://classicalguitartablature.blogspot.com/
E| 5---------- 5---------- 5------|----------------10-- 8-- 7------|
B| 3---------- 3---------- 3------|---------------- 8-- 8-- 8--10--|
G| 0---------- 0------ 0----------|---- 7------ 7-- 9-- 9-- 9-- 9--|
D|---- 0---------------------- 0--|---- 7------ 7-------------- 7--|
A|--------------------------------| 0------ 0------ 0------ 0------|
E| 3------ 3------ 3------ 3------|--------------------------------|
http://classicalguitartablature.blogspot.com/
E|---------------------------- 3--|------------------------------ 3|
B|10----------10--------10---- 1--|------------------------------ 3|
G| 7---------- 7-------- 7---- 0--|---- 0------ 0------ 0------ 0--|
D| 9-- 9------ 9------ 9-- 9------|---- 2------ 2------ 2----------|
A|--------------------------------| 3------ 3---- 3-------- 3------|
E| 0------ 0------ 0------ 0------|--------------------------------|
http://classicalguitartablature.blogspot.com/
E|---------- 2--------------------|--------------------------------|
B|-------- 3-------------- 3------|--------------------------------|
G|---- 0-------------- 0----------|--------------------------------|
D|---------------- 0--------------|--------------------------------|
A|--------------------------------|--------------------------------|
E| 3------------------------------|--------------------------------|
http://classicalguitartablature.blogspot.com/

0 ความคิดเห็น:

แสดงความคิดเห็น