To celebrate the anniversary, I am giving you (finally...) : iPhone LickByNeck !!!!!!

Highway Star (BASIC)

Deep Purple's tune fingerstyle chord melody guitar BASIC arrangement played in the key of G.

Highway Star-Deep Purple-BASIC Arrangement played in the key of G.
http://classicalguitartablature.blogspot.com/
E| 3------------------------------| 1------------------------------|
B| 3---------- 3-------------- 3--|------------ 3------------ 3----|
G|-------- 0-------------- 0------|-------- 0-------------- 0------|
D|---- 0-------------- 0----------|---- 0-------------- 0----------|
A|--------------------------------|--------------------------------|
E|-- 3----------------------------| 3------------------------------|
http://classicalguitartablature.blogspot.com/
E| 0------------------------------| 1------------------------------|
B|------------ 3-------------- 3--|------------ 3------------------|
G|-------- 0-------------- 0------|-------- 0-------------- 0------|
D|---- 0-------------- 0----------|---- 0-------------- 0----------|
A|--------------------------------|--------------------------------|
E| 3------------------------------| 3------------------------------|
http://classicalguitartablature.blogspot.com/
http://classicalguitartablature.blogspot.com/
E| 3------------------------------| 1------------------------------|
B| 3---------- 3-------------- 3--|------------ 3-------------- 3--|
G|-------- 0-------------- 0------|-------- 0-------------- 0------|
D|------ 0------------ 0----------|---- 0-------------- 0----------|
A|--------------------------------|--------------------------------|
E| 3------------------------------| 3------------------------------|
http://classicalguitartablature.blogspot.com/
E| 0------------------------------|--------------------------------|
B|------------ 3------------------|--------------------------------|
G|-------- 0-------------- 0------| 5-------------- 3--------------|
D|---- 0-------------- 0----------| 5-------------- 3--------------|
A|--------------------------------| 3-------------- 1--------------|
E| 3------------------------------|--------------------------------|
http://classicalguitartablature.blogspot.com/
E|-------- 3------ 3--------------| 1-- 3------ 3---------------- 1|
B|-------- 3------ 3------ 3-- 3--| 3-- 3------ 3------ 3-- 3------|
G|------------ 0---------- 0-- 0--|-------------------- 0-- 0------|
D|---- 0-------------- 0----------|-------------------------- 0----|
A|--------------------------------|--------------------------------|
E| 3-------------- 3--------------| 3-------------- 3--------------|
http://classicalguitartablature.blogspot.com/
E|------ 3------------------------| 1---------- 3------------------|
B| 3---- 3-------- 3------ 3------| 3---------- 5------------------|
G| 0-------------- 0------ 0------| 3---------- 5------------------|
D|------------ 0------ 0----------|--------------------------------|
A|--------------------------------| 1---------- 3------------------|
E| 3-------------- 3--------------|------------------------ 6------|
http://classicalguitartablature.blogspot.com/
E|-------- 3------ 3--------------| 1-- 3------ 3---------------- 1|
B|-------- 3------ 3------ 3-- 3--| 3-- 3------ 3------ 3-- 3---- 3|
G|------------------------ 0-- 0--| 0-- 0-------------- 0-- 0---- 0|
D|---- 0------ 0------ 0----------|--------------------------------|
A|--------------------------------|--------------------------------|
E| 3-------------- 3--------------| 3-------------- 3--------------|
http://classicalguitartablature.blogspot.com/
E|------ 3------------------------| 1------------------------------|
B|------ 3-------- 3---- 3--------| 3---------- 5------------------|
G|------ 0-------- 0---- 0--------| 3---------- 5------------------|
D|---------------- 0--------------|--------------------------------|
A|--------------------------------| 1---------- 3------------------|
E| 3-------------- 3--------------|------------------------ 6------|
http://classicalguitartablature.blogspot.com/
E|-------- 1----------------------|---- 1------ 1------------------|
B|-------- 1-------------- 1-- 1--| 4-- 1------ 1-------------- 1--|
G|------------------------ 2-- 2--| 2-- 2------ 2---------- 2------|
D|---- 3------ 3------ 3----------| 3------------------ 3----------|
A|--------------------------------|--------------------------------|
E| 1-------------- 1--------------| 1-------------- 1--------------|
http://classicalguitartablature.blogspot.com/
E|---- 1-- 1------ 5------ 5-- 1--|------ 1-------- 0--------------|
B|---- 1-- 1------ 1------ 1-- 1--|------ 1-------- 0------ 4------|
G|---- 2-- 2-------------- 2-- 2--|-- 2-- 2-------- 1------ 3------|
D|--------------------------------|------------------------ 5------|
A|--------------------------------|------------------------ 6------|
E| 1-------------- 1--------------| 1------ 1------ 0--------------|
http://classicalguitartablature.blogspot.com/
E|--------------------------------| 2------------------------------|
B| 3------------------ 3-- 3------| 3------ 3-- 3------------ 3----|
G| 2---------- 2------ 2-- 2------| 2------ 2-- 2---------- 2------|
D| 4------ 4---------- 4-- 4------|-------- 4-- 4------ 4----------|
A| 5-------------- 5--------------| 5-------------- 5--------------|
E|--------------------------------|--------------------------------|
http://classicalguitartablature.blogspot.com/
E| 3-- 2------ 3------ 2------ 5--|-------- 5----------------------|
B| 3-- 3------ 3------ 3------ 7--|-------- 7-- 7 5----------------|
G| 2-- 2------ 2-------------- 7--|-------- 7------ 7-------- 7----|
D|--------------------------------|------------------------ 7------|
A| 5-------------- 5--------------| 5-------------- 5--------------|
E|--------------------------------|--------------------------------|
http://classicalguitartablature.blogspot.com/
E|--------12--12------------------|------12--12--------------------|
B|--------------------10------10--|------------------10------------|
G|---- 9------------------ 9------|---- 9---------------------- 9--|
D|--------------------------------|--------------------------------|
A| 0-------------- 0--------------| 0-------------- 0--------------|
E|--------------------------------|--------------------------------|
http://classicalguitartablature.blogspot.com/
E|------12----12------------------|--------------------------------|
B|--------------------10----------|--------------------------------|
G|---- 9---------------------- 5--|-------- 2-- 5---------- 2---- 5|
D|---------------------------- 5--|-------- 2-- 5---------- 2---- 5|
A| 0-------------- 0--------------|-- 0-------------- 0------------|
E|--------------------------------|--------------------------------|
http://classicalguitartablature.blogspot.com/
E|--------------------------------|--------------------------------|
B|-------------------- 5 5---- 8--|------------ 5---------------- 1|
G|------------ 5------ 5 5---- 5--|------ 7------------------ 5----|
D|-------- 5---------- 5 5---- 5--|---------------------- 5--------|
A| 0-------------- 0--------------| 0-------------- 0--------------|
E|--------------------------------|--------------------------------|
http://classicalguitartablature.blogspot.com/
E|--------------------------------|--------------------------------|
B|------------ 3------------ 3----| 1---------- 3-------------- 3--|
G| 0---------- 2-------- 2--------| 0---------- 2---------- 2------|
D| 2---------- 4---- 4------------| 2---------- 4------ 4----------|
A| 3---------- 5------------------| 3---------- 5------------------|
E|--------------------------------|--------------------------------|
http://classicalguitartablature.blogspot.com/
E| 3---------- 2------------------| 1---------- 3---------------- 5|
B| 1---------- 3------------ 3----| 1---------- 3-------------- 3--|
G| 0---------- 2---------- 2------| 2---------- 0-------- 0--------|
D|---------- 4-------- 4-------- 3|------------------ 0------------|
A| 3---------- 5------------------|--------------------------------|
E|--------------------------------| 1---------- 3------------------|
http://classicalguitartablature.blogspot.com/
E|--------------------------------|--------------------------------|
B| 5------------------------------|--------------------------------|
G| 2------------------ 2------ 2--|---- 2------ 2------ 2------ 2--|
D|---- 2------ 2------ 2------ 2--|---- 2------ 2------ 2------ 2--|
A| 0------ 0------ 0------ 0------| 0------ 0------ 0------ 0------|
E|--------------------------------|--------------------------------|
http://classicalguitartablature.blogspot.com/
E|--------------------------------|--------------------------------|
B|--------------------------------|--------------------------------|
G|--------------------------------|--------------------------------|
D|--------------------------------|--------------------------------|
A|------------ 3------ 5------ 7--|----10------10--12--------------|
E| 3-- 5--------------------------|--------------------------------|
http://classicalguitartablature.blogspot.com/
E|--------------------------------|--------------------------------|
B|--------------------------------|--------------------------------|
G|--------------------------------|--------------------------------|
D|--------------------------------|--------------------------------|
A|--------------------------------|----------------12--10----------|
E|--------------------------------|----------------------------12--|
http://classicalguitartablature.blogspot.com/
E|--------------------------------|--------------------------------|
B|--------------------------------|--------------------------------|
G|--------------------------------|--------------------------------|
D|--------------------------------|--------------------------------|
A|--------------------------------|--------------------------------|
E|----11------10------ 8 5--------| 3------------------------------|
http://classicalguitartablature.blogspot.com/
E|--------------------------------|--------------------------------|
B|--------------------------------|--------------------------------|
G| 0------------------------------| 7------------------------------|
D| 0-------------- 3--------------| 7------------------------------|
A|---------------- 3--------------| 5------------------------------|
E| 3---------------- 1------------|--------------------------------|
http://classicalguitartablature.blogspot.com/

0 ความคิดเห็น:

แสดงความคิดเห็น