To celebrate the anniversary, I am giving you (finally...) : iPhone LickByNeck !!!!!!

Hot Stuff (BASIC)

Donna Summer's tune fingerstyle chord melody guitar BASIC arrangement played in the key of Em.

Hot Stuff-Donna Summer-BASIC Arrangement played in the key of Em.
http://classicalguitartablature.blogspot.com/
E|--------------------------------|--------------------------------|
B|--------------------------------|--------------------------------|
G|--------------------------------|--------------------------------|
D|---- 2------ 2------ 2------ 2--|---- 2------ 2------ 2------ 2--|
A|--------------------------------|--------------------------------|
E| 0------ 0------ 0------ 0------| 0------ 0------ 0------ 0------|
http://classicalguitartablature.blogspot.com/
E|---------------------------- 0--|-------- 0----------------------|
B|---------------- 0-- 3---- 0----|---- 3------ 3-- 0--------------|
G|-------- 0-- 2------------------|-------------------- 0------ 2--|
D| 2-- 4--------------------------|---------------------------- 4--|
A|--------------------------------|--------------------------------|
E| 0------ 0------ 0------ 0------| 0------ 0------ 0------ 0------|
http://classicalguitartablature.blogspot.com/
http://classicalguitartablature.blogspot.com/
E|--------------------------------|--------------------------------|
B|--------------------------------|--------------------------------|
G|---- 0-- 2-- 0-- 2-- 0------ 3--|---- 2-- 0----------------------|
D|---------------- 4--------------|------------ 2------ 2------ 2--|
A| 5------ 5------ 5------ 5------|--------------------------------|
E|--------------------------------| 0------ 0------ 0------ 0------|
http://classicalguitartablature.blogspot.com/
E|---------------------------- 0--|-------- 0----------------------|
B|---------------- 0-- 3---- 0----|---- 3------ 3-- 0--------------|
G|-------- 0-- 2------------------|-------------------- 0------ 2--|
D| 2-- 4--------------------------|---------------------------- 4--|
A|--------------------------------|--------------------------------|
E| 0------ 0------ 0------ 0------| 0------ 0------ 0------ 0------|
http://classicalguitartablature.blogspot.com/
E|--------------------------------|--------------------------------|
B|--------------------------------|--------------------------------|
G|---- 0-- 2-- 0-- 2-- 0------ 3--|---- 2-- 0----------------------|
D|---------------- 4--------------|------------ 2------ 2------ 2--|
A| 5------ 5------ 5------ 5------|--------------------------------|
E|--------------------------------| 0------ 0------ 0------ 0------|
http://classicalguitartablature.blogspot.com/
E| 0------ 0------ 0---------- 2--|-------------------- 0----------|
B| 0-- 3-- 0-- 3-- 0-- 3------ 0--|---- 0------ 3-------------- 0--|
G| 0------ 0-- 0-- 0-- 0----------|---- 0------ 0------------------|
D|------------ 2------------------|--------------------------------|
A|--------------------------------|--------------------------------|
E| 0------ 0------ 0------ 0------| 0------ 0------ 0------ 0------|
http://classicalguitartablature.blogspot.com/
E|------------------------ 3-- 0--|--------------------------------|
B| 3-- 0-- 3-- 0-- 3-- 0------ 0--|--------------------------------|
G| 2-- 2-- 2-- 2-- 2---------- 0--|------------ 0------------------|
D|---- 4------ 4-- 4--------------|---- 2------ 2------ 2------ 2--|
A| 5------ 5------ 5------ 5------|--------------------------------|
E|--------------------------------| 0------ 0------ 0------ 0------|
http://classicalguitartablature.blogspot.com/
E| 0------ 0------ 0---------- 2--|-------------------- 0----------|
B| 0-- 3-- 0-- 3-- 0-- 3------ 0--|---- 0------ 3-------------- 0--|
G| 0------ 0-- 0-- 0-- 0----------|---- 0------ 0------------------|
D|------------ 2------------------|--------------------------------|
A|--------------------------------|--------------------------------|
E| 0------ 0------ 0------ 0------| 0------ 0------ 0------ 0------|
http://classicalguitartablature.blogspot.com/
E|---------------- 3-- 2-- 0-- 0--|---------------- 0 0-- 3---- 0 5|
B| 3-- 0-- 3-- 0------------------|------------ 0-- 0---- 0---- 0 5|
G| 2------ 2----------------------|------------ 0---------- 0-- 0--|
D| 4------------------------------|---- 2--------------------------|
A| 5------ 5------ 5------ 5------|--------------------------------|
E|--------------------------------| 0------ 0------ 0------ 0------|
http://classicalguitartablature.blogspot.com/
E|-------- 5---- 3---- 2------ 0--|---- 0---------- 0-- 0-- 3-- 0--|
B|-------- 5-------- 3---- 5-- 0--|---- 0---------- 0-- 0------ 0--|
G|---- 5---------- 2------ 2 0----|------------ 0------------------|
D|--------------------------------|--------------------------------|
A| 0------ 0------ 2------ 2------|--------------------------------|
E|--------------------------------| 0------ 0------ 0------ 0------|
http://classicalguitartablature.blogspot.com/
E| 5------ 5------ 3-- 2------ 0--|---- 0---------- 0-- 0-- 3-- 0--|
B| 5------ 5------ 3-- 3-- 5-- 0--|---------------- 0-- 0-- 0-- 0--|
G|---- 5---------- 2-- 2----------|--------------------------------|
D|--------------------------------|------------ 2------------------|
A| 0------ 0------ 2------ 2------|--------------------------------|
E|--------------------------------| 0------ 0------ 0------ 0------|
http://classicalguitartablature.blogspot.com/
E| 5------ 5---- 7------------ 7--|---------------------------- 5--|
B| 5------ 5------ 7--10-- 8-- 8--|--10-- 8-------------------- 5--|
G|---- 5------ 5-- 7------ 7-- 7--|-------- 9------------------ 5--|
D|------------------------ 7------|-------------------- 9----------|
A| 0------ 0----------------------|--------------------------------|
E|---------------- 7------ 7------| 0------ 0------ 0------ 0------|
http://classicalguitartablature.blogspot.com/
E|------ 5------ 5------------ 7--|-------------------------- 5 3--|
B|---- 8 8-- 8---- 8-- 8------ 8--|-- 8--10-- 8--10---- 8------ 0--|
G|---- 5---- 5-------- 5------ 8--|-- 8-- 8-- 8-- 8---- 8------ 0--|
D|--------------------------------|-- 7-- 7-- 7-- 7---- 7----------|
A| 0------------------------------|--------------------------------|
E|--------------------------------| 7------------------------------|
http://classicalguitartablature.blogspot.com/
E|--------------------------------|------------------------------ 7|
B| 5------------------------------|------------------ 8--10-- 8----|
G|-------------------- 0------ 2--|---- 2-------- 8------ 8-- 8----|
D|-------------------- 0------ 2--|---- 2-------- 7------ 7-- 7----|
A|--------------------------------|--------------------------------|
E| 0------ 0------ 0-- 3------ 5--|------ 5---- 0 7----------------|
http://classicalguitartablature.blogspot.com/
E|------ 5---- 3------------------|--------------------------------|
B| 0---- 0------------------------|------------------ 8--10-- 8----|
G| 0------ 0------------------ 2--|---- 2-------- 8---------- 8----|
D|---------------------------- 2--|---- 2-------- 7------------ 7--|
A|--------------------------------|--------------------------------|
E| 0------ 0------ 0-- 3------ 5--|-------- 5------ 7---------- 7--|
http://classicalguitartablature.blogspot.com/
E|---- 0------ 0------ 0------ 0--|---- 0-------------- 0----------|
B|---- 0------ 0------ 0------ 0--|---- 0------ 3------ 0----------|
G|---- 0------ 0------ 0------ 0--|---- 0------ 0------ 0----------|
D|--------------------------------|------------ 2-------------- 2--|
A|--------------------------------|------------------------------ 5|
E| 0------ 0------ 0------ 0------| 0------ 0------ 0------ 0------|
http://classicalguitartablature.blogspot.com/
E|--------------------------------|--------------------------------|
B|---- 3------ 3------ 3----------|--------------------------------|
G|---- 2------ 2------ 2----------|------------ 0-------------- 0--|
D|---- 4---------------------- 4--|---- 2------ 2------ 2----------|
A|-------- 5------ 5------ 5------|--------------------------------|
E|--------------------------------| 0------ 0------ 0------ 0------|
http://classicalguitartablature.blogspot.com/
E|---- 0------ 0------ 0------ 0--|---- 0-------------- 0----------|
B|---- 0------ 0------ 0------ 0--|---- 0------ 3------ 0----------|
G|---- 0------ 0------ 0------ 0--|---- 0------ 0------ 0----------|
D|--------------------------------|------------ 2-------------- 2--|
A|--------------------------------|------------------------------ 5|
E| 0------ 0------ 0------ 0------| 0------ 0------ 0------ 0------|
http://classicalguitartablature.blogspot.com/
E|--------------------------------|--------------------------------|
B|---- 3------ 3------ 3----------|--------------------------------|
G|---- 2------ 2------ 2----------|------------ 0-------------- 0--|
D|---- 4---------------------- 4--|---- 2------ 2------ 2----------|
A|-------- 5------ 5------ 5------|--------------------------------|
E|--------------------------------| 0------ 0------ 0------ 0------|
http://classicalguitartablature.blogspot.com/
E|---------------------------- 0--|-------- 0----------------------|
B|---------------- 0-- 3---- 0----|---- 3------ 3-- 0--------------|
G|-------- 0-- 2------------------|-------------------- 0------ 2--|
D| 2-- 4--------------------------|---------------------------- 4--|
A|--------------------------------|--------------------------------|
E| 0------ 0------ 0------ 0------| 0------ 0------ 0------ 0------|
http://classicalguitartablature.blogspot.com/
E|--------------------------------|--------------------------------|
B|--------------------------------|--------------------------------|
G|---- 0-- 2-- 0-- 2-- 0------ 3--|---- 2-- 0-------------------- 9|
D|---------------- 4--------------|------------ 2------ 2------ 2--|
A| 5------ 5------ 5------ 5------|--------------------------------|
E|--------------------------------| 0------ 0------ 0------ 0------|
http://classicalguitartablature.blogspot.com/
E|---------------- 7--10------12--|----10--12--10 7------------ 5--|
B|---- 7-- 8--10 8----------------|-------------------- 8------ 8--|
G|--------------------------------|---------------------------- 7--|
D|--------------------------------|--------------------------------|
A|--------------------------------|--------------------------------|
E| 0------ 0------ 0------ 0------| 0------ 0------ 0------ 0------|
http://classicalguitartablature.blogspot.com/
E|-------- 5------ 5--------------|------------12------------------|
B|---- 8-- 8-- 8-- 8-- 8----------|101010-- 8--12------------------|
G|---- 7------ 7------ 7----------|--------------------------------|
D|--------------------------------|--------------------------------|
A| 5------------------------------|--------------------------------|
E|--------------------------------| 0---------- 0------------------|
http://classicalguitartablature.blogspot.com/

0 ความคิดเห็น:

แสดงความคิดเห็น