To celebrate the anniversary, I am giving you (finally...) : iPhone LickByNeck !!!!!!

It's Probably Me (BASIC)

Sting's tune fingerstyle chord melody guitar BASIC arrangement played in the key of Em.

It's Probably Me-Sting-BASIC Arrangement played in the key of Em.
http://classicalguitartablature.blogspot.com/
E|--------------------------------|--------------------------------|
B|--------------------------------|--------------------------------|
G|---- 5---- 5---- 5--------------|-- 5---- 5---- 5----------------|
D|---- 5---- 5---- 5--------------|---- 5-- 5---- 5----------------|
A| 3-------- 3---- 3--------------| 3-------- 3-- 3----------------|
E|--------------------------------|--------------------------------|
http://classicalguitartablature.blogspot.com/
E|--------------------------------|------------------------ 7 5----|
B|--------------------------------|-------------------- 0------ 8--|
G|---- 5---- 5-- 5----------------|---- 5---- 5---- 5--------------|
D|---- 5---- 5-- 5----------------|---- 5---- 5---- 5 7------------|
A| 3-------- 3---- 3--------------| 3-------- 3---- 3--------------|
E|--------------------------------|--------------------------------|
http://classicalguitartablature.blogspot.com/
http://classicalguitartablature.blogspot.com/
E| 5---------------------- 5 5 3--| 5 3------------------ 5 7 5 3--|
B| 0------ 0------------ 0--------| 0------------------ 0----------|
G| 0------ 0----------------------| 0------------------------------|
D|-------- 0----------------------|--------------------------------|
A|--------------------------------|--------------------------------|
E| 0-- 0---- 0---- 0--------------| 0-- 0---- 0---- 0--------------|
http://classicalguitartablature.blogspot.com/
E| 5---------------------- 5 5 3--| 5 3------------------ 5 7 5 3--|
B| 0------ 0------------ 0--------| 0------------------ 0----------|
G| 0------ 0----------------------| 0------------------------------|
D|-------- 0----------------------|--------------------------------|
A|--------------------------------|--------------------------------|
E| 0-- 0---- 0---- 0--------------| 0-- 0---- 0---- 0--------------|
http://classicalguitartablature.blogspot.com/
E| 5 7------------------ 7--10 7--| 7------------------ 7 5-- 5-- 7|
B| 5------------------------------| 7---------------------- 8------|
G| 5------------------------------| 7------------------------------|
D|--------------------------------|--------------------------------|
A| 0-- 0---- 0---- 0--------------| 5-- 5---- 5---- 5--------------|
E|--------------------------------|--------------------------------|
http://classicalguitartablature.blogspot.com/
E|--------------------------------|---------------------- 7---- 8--|
B|--------------------------------|--------------------------------|
G|---- 9---------- 9--------------|---- 9---------- 9--------------|
D|---- 9---------- 9--------------|---- 9-------- 9----------------|
A|--------------------------------|--------------------------------|
E| 0-------- 0---- 0---- 0---- 0--| 0-- 0---- 0---- 0--------------|
http://classicalguitartablature.blogspot.com/
E| 5----------------------10-- 7--|-- 7----------------------------|
B| 5-------------------- 8--------|10-------------------- 810 810 8|
G| 5------------------------------| 8---------------------------- 9|
D|--------------------------------| 9------------------ 9-------- 9|
A| 0-- 0---- 0---- 0--------------|--------------------------------|
E|--------------------------------| 7-- 7---- 7---- 7--------------|
http://classicalguitartablature.blogspot.com/
E|--------------------------------|---------------------- 7--------|
B|---------------------- 810-- 8--|-------------------- 0----10 810|
G|-------------------- 9-------- 9|------------------------------ 9|
D|------------------------------ 9|--------------------------------|
A|--------------------------------|--------------------------------|
E| 0-- 0---- 0-- 0-------------- 9|-- 9---- 9---- 9-------------- 8|
http://classicalguitartablature.blogspot.com/
E| 7----------------------10-- 7--|------------------------ 7------|
B|--------------------------------|1010---------------------- 810--|
G|--------------------------------| 8 8----------------------------|
D|-------------------- 9----------| 9 9------------------ 9--------|
A|--------------------------------|--------------------------------|
E|---- 8---- 8---- 8--------------| 7-- 7---- 7---- 7--------------|
http://classicalguitartablature.blogspot.com/
E|--------------------------------|---------------------- 7------ 7|
B| 8-------------- 8--------------| 8-------------- 8-------- 8-- 5|
G|-- 9------------ 9--------------| 9-------------- 9-- 9-------- 5|
D|---------------- 9--------------| 9-------------- 9--------------|
A|--------------------------------|--------------------------------|
E| 0---- 0-- 0---- 0---- 0---- 0--| 0-- 0---- 0---- 0--------------|
http://classicalguitartablature.blogspot.com/
E|---- 5--------------------10-- 7|------ 7------------------------|
B|-- 8 5-- 8 5-- 5-------------- 7|10 8-- 7------------------------|
G|-- 5---- 5 5-- 5-------------- 7|------------------------------ 7|
D|-- 5---- 5 5-- 5----------------|--------------------------------|
A| 0-- 0---- 0---- 0--------------|--------------------------------|
E|--------------------------------|10--10----10----10--------------|
http://classicalguitartablature.blogspot.com/
E| 7----10---- 7------------------| 7-- 7-- 7---------- 7------ 8--|
B| 8---- 8---- 8------------ 810--| 8-- 8-- 7---------- 7----------|
G| 7---------- 7------------------| 7-- 7-- 7---------- 7----------|
D|--------------------------------|--------------------------------|
A|10--10----10--10-------- 9------| 7------ 9------10--------------|
E|--------------------------------|------------------------ 7------|
http://classicalguitartablature.blogspot.com/
E| 5------------------------10 7--|---------------------- 7-- 7----|
B| 5---------------------- 8------|10-- 810-- 810-- 810------------|
G| 5------------------------------| 7-- 7 7---- 7-- 7--------------|
D|--------------------------------| 7-- 7 7-- 7 6-- 7--------------|
A| 0-- 0---- 0---- 0--------------|--------------------------------|
E|--------------------------------|10--10----10----10--------------|
http://classicalguitartablature.blogspot.com/
E|-------------------------- 5 7 3|-- 5-- 3 5-- 2-- 3-- 2-- 0 0-- 7|
B|--------------------------------|--------------------------------|
G|---- 0--------------------------|--------------------------------|
D|---- 0--------------------------|--------------------------------|
A|--------------------------------|--------------------------------|
E| 3-------- 3---- 3---- 3---- 3--| 3-- 3---- 3---- 3---- 3---- 3--|
http://classicalguitartablature.blogspot.com/
E| 5-- 7----------------10---- 7--|--------------------------------|
B| 5-- 5---------------------- 7--|10------------------------------|
G| 5-- 5---------------------- 7--| 7------------------------------|
D|--------------------------------| 7------------------------------|
A| 0-- 0---- 0---- 0--------------|--------------------------------|
E|--------------------------------| 7-- 7---- 7---- 7--------------|
http://classicalguitartablature.blogspot.com/
E|---------- 5---- 7-- 5 3---- 5--| 3 0---------------- 0-- 7 5 3--|
B| 8---- 8------------------------|------------ 0----------------10|
G|--------------------------------|-------- 0-------------------- 9|
D|--------------------------------|---- 2--------------------------|
A|---- 7---- 5---- 7--------------| 4------------------------------|
E|--------------------------------|------------------------------ 8|
http://classicalguitartablature.blogspot.com/
E| 7----------------------10-- 7--|------------------------ 7------|
B|--------------------------------|1010---------------------- 810--|
G|--------------------------------| 8 8----------------------------|
D|-------------------- 9----------| 9 9------------------ 9--------|
A|--------------------------------|--------------------------------|
E|---- 8---- 8---- 8--------------| 7-- 7---- 7---- 7--------------|
http://classicalguitartablature.blogspot.com/
E|--------------------------------|------------------------ 7------|
B| 8 5----------------------------| 5------------ 5-------- 8--10 8|
G| 7 7----------------------------| 6------------ 6-------- 7---- 7|
D| 6 6----------------------------| 5-------- 5---- 5-- 9 9---- 9--|
A|--------------------------------|--------------------------------|
E| 6-- 6---- 6---- 6---- 6---- 6--| 5-- 5---- 5---- 5------ 7---- 8|
http://classicalguitartablature.blogspot.com/
E| 7----------------------10-- 7--|------------------------ 7------|
B|--------------------------------|1010---------------------- 810--|
G|--------------------------------| 8 8----------------------------|
D|-------------------- 9----------| 9 9------------------ 9--------|
A|--------------------------------|--------------------------------|
E|---- 8---- 8---- 8--------------| 7-- 7---- 7---- 7--------------|
http://classicalguitartablature.blogspot.com/
E|--------------------------------|------------------------ 7------|
B| 8 5----------------------------| 5------------ 5-------- 8--10 8|
G| 7 7----------------------------| 6------------ 6-------- 7---- 7|
D| 6 6----------------------------| 5-------- 5---- 5-- 9 9---- 9--|
A|--------------------------------|--------------------------------|
E| 6-- 6---- 6---- 6---- 6---- 6--| 5-- 5---- 5---- 5------ 7---- 8|
http://classicalguitartablature.blogspot.com/
E| 7----------------------10-- 7--|------------------------ 7------|
B|--------------------------------|1010---------------------- 810--|
G|--------------------------------| 8 8----------------------------|
D|-------------------- 9----------| 9 9------------------ 9--------|
A|--------------------------------|--------------------------------|
E|---- 8---- 8---- 8--------------| 7-- 7---- 7---- 7--------------|
http://classicalguitartablature.blogspot.com/
E| 3------------------------------|--------------------------------|
B| 0------------------------------|--------------------------------|
G| 0------------------------------|--------------------------------|
D|--------------------------------|--------------------------------|
A|--------------------------------|--------------------------------|
E| 0-- 0---- 0---- 0---- 0---- 0--| 0-- 0---- 0---- 0--------------|
http://classicalguitartablature.blogspot.com/

0 ความคิดเห็น:

แสดงความคิดเห็น