To celebrate the anniversary, I am giving you (finally...) : iPhone LickByNeck !!!!!!

Johnny B Goode (BASIC)

Chuck Berry's tune fingerstyle chord melody guitar BASIC arrangement played in the key of Bb.

Johnny B Goode-Chuck Berry-BASIC Arrangement played in the key of Bb.
http://classicalguitartablature.blogspot.com/
E|--------------------------------| 6-- 6-- 6-- 5-- 6 6---- 5 6-- 6|
B|------------------------ 6-- 8--| 6-- 6-- 6 5 6-- 6-- 6-- 5 6----|
G|-------------------- 6 7--------|--------------------------------|
D|--------------------------------|--------------------------------|
A|--------------------------------|--------------------------------|
E|--------------------------------|--------------------------------|
http://classicalguitartablature.blogspot.com/
E|--------------------------------|--------------------------------|
B| 6-- 9-- 8-- 6------------------|--------------------------------|
G|-------------- 6-- 7------------|--------------------------------|
D|------------------------ 8------| 7-- 8-- 8-- 7-- 8-- 8-- 7-- 8--|
A|---------------------------- 8--| 7-- 8-- 8-- 7-- 8-- 8-- 7 8 8--|
E|--------------------------------|--------------------------------|
http://classicalguitartablature.blogspot.com/
http://classicalguitartablature.blogspot.com/
E|--------------------------------|--------------------------------|
B|---- 6-- 8-- 6------------------|-------- 6---------- 6----------|
G| 6-- 7-- 7-- 7-- 7 5------------| 910-------- 910-------- 910----|
D|-------------------- 8-- 5------|--------------------------------|
A|--------------------------------| 6------ 6------ 6------ 6------|
E|--------------------------------|--------------------------------|
http://classicalguitartablature.blogspot.com/
E|--------------------------------|--------------------------------|
B| 6---------- 6---------- 6------|-------- 6---------- 6----------|
G|---- 9--10------ 910------------| 910-------- 910-------- 910----|
D|--------------------------------|--------------------------------|
A| 6------ 6------ 6------ 6------|--------------------------------|
E|--------------------------------| 6------ 6------ 6------ 6------|
http://classicalguitartablature.blogspot.com/
E|--------------------------------|-------- 6------------ 8---- 6--|
B| 6---------- 6---------- 6------| 5 6-------- 9-- 8-- 6----------|
G|---- 910-------- 910------------|--------------------------------|
D|--------------------------------|--------------------------------|
A|--------------------------------| 8------ 8------ 8------ 8------|
E| 6------ 6------ 6------ 6------|--------------------------------|
http://classicalguitartablature.blogspot.com/
E|------------------------ 6------|--------------------------------|
B| 9-- 8-- 6------------ 6---- 9--| 8-- 6------ 6------ 6----------|
G|---------- 8-- 7------ 7--------|-------- 8------ 8------ 8-- 6 7|
D|-------------------- 8----------|--------------------------------|
A| 6------ 6------ 6------ 6------|--------------------------------|
E|--------------------------------| 6------ 6------ 6------ 6------|
http://classicalguitartablature.blogspot.com/
E|--------------------------------|--------------------------------|
B|--------------------------------| 6-- 6-- 6-- 6-- 6-- 6----------|
G|--------------------------------| 7-- 7-- 7 7---- 7-- 7-- 8-- 7--|
D| 8------------------------------| 6------ 6-- 6-- 6-- 6----------|
A| 8------10-- 8------ 8--10-- 8--|--------------------------------|
E| 6------ 6------ 6------ 6------| 6------ 6------ 6------ 6------|
http://classicalguitartablature.blogspot.com/
E|--------------------------------|--------------------------------|
B|------------ 6------------------| 6-- 6-- 6-- 6-- 6-- 6----------|
G| 8-- 7--------------------------| 7-- 7-- 7------ 7-- 7-- 8-- 7--|
D| 6-- 6------------ 6-------- 8--| 6-- 6-- 6-- 6-- 6------ 6-- 6--|
A|--------------------------------|--------------------------------|
E| 6------ 6------ 6------ 6------| 6------ 6------ 6------ 6------|
http://classicalguitartablature.blogspot.com/
E|--------------------------------|--------------------------------|
B|--------------------------------| 6------------------------------|
G| 8 7----------------------------| 6-- 6-- 8-- 6-- 8-- 6-- 8-- 6--|
D| 6-- 6------ 8------ 8------ 8--|---- 8-- 8-- 8-- 8-- 8-- 8-- 8--|
A|--------------------------------| 6------ 6------ 6------ 6------|
E| 6------ 6------ 6------ 6------|--------------------------------|
http://classicalguitartablature.blogspot.com/
E|--------------------------------|--------------------------------|
B|------------ 6------------------| 6-- 6-- 6-- 6-- 6-- 6----------|
G| 8-- 6--------------------------| 7-- 7-- 7------ 7-- 7-- 8-- 7--|
D| 8-- 8-------------- 8------ 8--| 6-- 6-- 6-- 6-- 6------ 6-- 6--|
A| 6------ 6------ 6------ 6------|--------------------------------|
E|--------------------------------| 6------ 6------ 6------ 6------|
http://classicalguitartablature.blogspot.com/
E|--------------------------------|--------------------------------|
B|---------------------------- 6--| 6------------------------------|
G| 8 7----------------------------|---- 7-- 8-- 7 8---- 7-- 8-- 7--|
D| 6-- 6------ 8------ 8------ 8--|--------------------------------|
A|--------------------------------| 8------ 8------ 8------ 8------|
E| 6------ 6------ 6------ 6------|--------------------------------|
http://classicalguitartablature.blogspot.com/
E|--------------------------------|--------------------------------|
B|------------ 6------------------| 6-- 6-- 6-- 6------------------|
G| 8-- 7------------------ 6-- 8--| 7-- 7-- 7---------- 6-- 8-- 6--|
D| 8------------------ 8----------| 6-- 6-- 6-- 6------------------|
A| 6------ 6---- 6-------- 6------|--------------------------------|
E|--------------------------------| 6------ 6------ 6------ 6------|
http://classicalguitartablature.blogspot.com/
E|--------------------------------|--------------------------------|
B|-------------------- 6------ 6--|---------------------------- 6--|
G| 8-- 6---------------------- 7--|---------------------------- 7--|
D|-------- 8-- 8-------------- 6--|---- 6-- 6-- 6-- 6-- 8------ 6--|
A|--------------------------------|--------------------------------|
E| 6------ 6------ 6------ 6------| 6------ 6------ 6------ 6------|
http://classicalguitartablature.blogspot.com/
E|--------------------------------|--------------------------------|
B|---- 6---------- 6------ 6-- 6--|---------------------------- 6--|
G|---- 7-- 8-- 7-- 7------ 7-- 7--|---------------------------- 7--|
D|---- 6---------- 6--------------|---- 6-- 6-- 6-- 6-- 8------ 6--|
A|--------------------------------|--------------------------------|
E| 6------ 6------ 6------ 6------| 6------ 6------ 6------ 6------|
http://classicalguitartablature.blogspot.com/
E|--------------------------------|--------------------------------|
B|-- 6------------ 6------ 6-- 6--|---------------------------- 6--|
G|------ 8-- 7---- 7---------- 6--|---------------------------- 6--|
D|---------------------------- 8--|---- 6-- 6-- 6-- 6-- 8----------|
A|--------------------------------| 6------ 6------ 6------ 6------|
E| 6------ 6------ 6------ 6------|--------------------------------|
http://classicalguitartablature.blogspot.com/
E|--------------------------------|--------------------------------|
B|---- 6---------- 6------ 6-- 6--|---------------------------- 6--|
G|-------- 8-- 6-------------- 7--|---------------------------- 7--|
D|---------------------------- 6--|---- 6-- 6-- 6-- 6-- 8------ 6--|
A| 6------ 6------ 6------ 6------|--------------------------------|
E|--------------------------------| 6------ 6------ 6------ 6------|
http://classicalguitartablature.blogspot.com/
E|--------------------------------|--------------------------------|
B|---- 6---------- 6------ 6------|--------------------------------|
G|---- 7-- 8-- 7-- 7----------10--|--------------------------------|
D|---- 6---------- 6----------10--|----10--12--10------10--12--10--|
A|--------------------------------| 8------ 8------ 8------ 8------|
E| 6------ 6------ 6------ 6------|--------------------------------|
http://classicalguitartablature.blogspot.com/
E|--------------------------------|--------------------------------|
B|--------------------------------|--------------------------------|
G|---------------- 8-- 6------ 3--|--------------------------------|
D|---- 8--10-- 8---------- 8-- 3--|---- 3------ 3------ 3------ 3--|
A| 6------ 6------ 6------ 6------| 1------------------------------|
E|--------------------------------|------ 3-------- 1------ 3------|
http://classicalguitartablature.blogspot.com/
E|--------------------------------|--------------------------------|
B|--------------------------------|--------------------------------|
G|------------ 3------------------|--------------------------------|
D| 3---------- 3------------------|--------------------------------|
A| 1---------- 1------------------|--------------------------------|
E|--------------------------------|--------------------------------|
http://classicalguitartablature.blogspot.com/

0 ความคิดเห็น:

แสดงความคิดเห็น