To celebrate the anniversary, I am giving you (finally...) : iPhone LickByNeck !!!!!!

Let's Hear It For The Boy (BASIC)

Deniece Williams' tune fingerstyle chord melody guitar BASIC arrangement played in the key of D.

Lets Hear It for the Boy-Deniece Williams-BASIC ARRANGEMENT played in the key of D.
http://classicalguitartablature.blogspot.com/
E|--------------------------------|--------------------------------|
B|--------------------------------|--------------------------------|
G|--------------------------------|--------------------------------|
D|--------------------------------|--------------------------------|
A|--------------------------------|--------------------------------|
E|--------------------------------|--------------------------------|
http://classicalguitartablature.blogspot.com/
E|--------------------------------|--------------------------------|
B|--------------------------------|--------------------------------|
G|--------------------------------|--------------------------------|
D|--------------------------------|--------------------------------|
A|--------------------------------|--------------------------------|
E|--------------------------------|--------------------------------|
http://classicalguitartablature.blogspot.com/
http://classicalguitartablature.blogspot.com/
E|--------------------------------|--------------------------------|
B|--------------------------------|--------------------------------|
G|--------------------------------|--------------------------------|
D|--------------------------------|--------------------------------|
A|-- 5------ 0---- 0------ 0------|--------------------------------|
E|------------ 2------------------|---- 3---- 3-- 3 3-- 0-- 5------|
http://classicalguitartablature.blogspot.com/
E|--------------------------------|------------------------------ 2|
B|--------------------------------|------------------------------ 3|
G|--------------------------------|------------------------------ 2|
D|--------------------------------|--------------------------------|
A|---- 5---- 0---- 0------ 0------|--------------------------------|
E|-------------- 2------------ 2 3|---- 3---- 2-- 0 5--------------|
http://classicalguitartablature.blogspot.com/
E|--------------------------------| 3------------------------------|
B|--------------------------------| 3---------------------- 5------|
G|--------------------------------| 4---------------------- 6------|
D|--------------------------------|------------------------ 7------|
A|---- 5---- 0---- 0 2---- 0------|--------------------------------|
E|-------------- 2----------------|---- 3---- 3-- 3 3-- 0-- 5------|
http://classicalguitartablature.blogspot.com/
E| 2-------------------- 2--------|---------------------- 7------ 5|
B| 3-------------------- 3------ 3|------------------------------ 3|
G| 2-------------------- 2------ 4|--------------------------------|
D|------------------------------ 5|--------------------------------|
A|-- 5------ 0---- 0 2-- 0--------|--------------------------------|
E|-------------- 2---------- 2-- 3|------ 3-- 2-- 0 5--------------|
http://classicalguitartablature.blogspot.com/
E|---- 5---- 2---- 7------ 2------|-------------------------- 2-- 2|
B|---- 3------------------------ 5|-- 3---------- 3-- 3-- 5--------|
G|--------------------------------|---------- 4--------------------|
D|--------------------------------|--------------------------------|
A|-- 5------ 0---- 0------ 0------|--------------------------------|
E|------------ 2------------------|---- 3---- 3-- 3 3-- 0-- 5------|
http://classicalguitartablature.blogspot.com/
E|--------------------------------|---------------------- 2-- 3-- 5|
B|---------- 5 3------------------|--------------------------------|
G|--------------------------------|--------------------------------|
D|--------------------------------|--------------------------------|
A|---- 5---- 0---- 0------ 0------|--------------------------------|
E|-------------- 2------------ 2 3|---- 3---- 2-- 0 5--------------|
http://classicalguitartablature.blogspot.com/
E|-- 5-- 2 2----------------------| 3------------------------------|
B|------------ 3------ 0----------|-------- 5-- 5-- 2-- 2----------|
G|---------------------------- 2--|------------------------ 4---- 2|
D|--------------------------------|--------------------------------|
A|---- 5---- 0---- 0 2---- 0------|--------------------------------|
E|-------------- 2----------------|---- 3---- 3-- 3 3-- 0-- 5------|
http://classicalguitartablature.blogspot.com/
E|--------------------------------|---------------------- 7------ 5|
B|--------------------------------|------------------------------ 3|
G|------ 2------------------------|--------------------------------|
D|--------------------------------|--------------------------------|
A|-- 5------ 0---- 0 2-- 0--------|--------------------------------|
E|-------------- 2---------- 2-- 3|------ 3-- 2-- 0 5--------------|
http://classicalguitartablature.blogspot.com/
E|---- 5------ 2-- 7------ 2------|-------------------------- 2-- 2|
B|---- 3--------------------------| 5 3---------- 3-- 3-- 5--------|
G|--------------------------------|---------- 4--------------------|
D|--------------------------------|--------------------------------|
A|-- 5------ 0---- 0------ 0------|--------------------------------|
E|------------ 2------------------|---- 3---- 3-- 3 3-- 0-- 5------|
http://classicalguitartablature.blogspot.com/
E|--------------------------------|--------------------------------|
B|------------ 5 3----------------|--------------------------------|
G|--------------------------------|---------------------------- 2--|
D|--------------------------------|--------------------------------|
A|---- 5---- 0---- 0------ 0------|--------------------------------|
E|-------------- 2------------ 2 3|---- 3---- 2-- 0 5--------------|
http://classicalguitartablature.blogspot.com/
E| 3 3-- 3---- 3 3---- 2-- 0---- 5|---- 5 5------ 7------ 9------ 7|
B| 0---- 0------ 0-- 0---- 0---- 7|---- 7 7-- 7---------- 7------ 9|
G| 0 0-- 0---- 0 0---- 0-------- 6|------ 6-------------- 6------ 9|
D|--------------------------------|--------------------------------|
A| 3------------ 3----------------| 5---------- 5 5----------------|
E|--------------------------------|--------------------------------|
http://classicalguitartablature.blogspot.com/
E|---- 7---------- 9--------------|------------------------------ 7|
B|---- 9---- 9---- 9--------------|---------- 9--10-- 9--10-- 9----|
G|---- 9---- 9---- 9--------------|--------------------------------|
D|--------------------------------|--------------------------------|
A| 7---- 7-- 7 7------------------|--------------------------------|
E|---------------- 9------ 9------|10----10--1010-- 7------ 7------|
http://classicalguitartablature.blogspot.com/
E|--------------------------------|---------------------- 9------ 7|
B|---------- 910 9------ 7 9 7----|------------------------------ 9|
G|---------------------------- 9--|------------------------------ 9|
D|--------------------------------|--------------------------------|
A| 7---- 7-- 7--------------------|--------------------------------|
E|---------------- 9------ 9------|10--10----1010-- 7------ 7------|
http://classicalguitartablature.blogspot.com/
E|---- 7-------- 9-------- 9------|------------------------------ 7|
B|---- 9---- 9-- 9-------- 9------|-- 9--10-- 9--10-- 9--10-- 9----|
G|---- 9-------- 9-------- 9------|--------------------------------|
D|--------------------------------|--------------------------------|
A| 7---- 7-- 7 7------------------|--------------------------------|
E|---------------- 9------ 9------|10----10--1010-- 7------ 7------|
http://classicalguitartablature.blogspot.com/
E|--------------------------------|--------------------------------|
B|------------ 9-- 9------ 7 9 7--|------------------ 9-- 7---- 9 5|
G|------------------------------ 9|------------------------------ 2|
D|--------------------------------|------------------------------ 2|
A| 7---- 7-- 7--------------------|--------------------------------|
E|---------------- 9------ 9------|10--10----1010-- 7------ 7------|
http://classicalguitartablature.blogspot.com/
E|--------------------------------|--------------------------------|
B|---- 5 5 4------ 5 4-- 2---- 2--| 7-- 7 7-- 5---- 7-- 5-- 4------|
G|---- 2 2 2------ 2---- 2--------| 4-- 4---- 4-------- 4----------|
D|------ 2---------- 2------------| 4-- 4 4------------ 4----------|
A|--------------------------------|--------------------------------|
E| 2------------ 2----------------| 4------------ 4 4--------------|
http://classicalguitartablature.blogspot.com/
E|--------------------------------| 7---------- 7-- 9-- 7---- 9 7--|
B| 5---------- 5-- 7------10------| 7---------- 7-- 7---- 9--------|
G| 2---------- 2-- 7------ 9------| 8---------- 8-- 8-- 8 8------ 8|
D| 2---------- 2---- 7---- 7---- 9|---------------------- 9--------|
A|--------------------------------|------------------------------ 7|
E| 5-- 5------ 5--10------ 9------| 7---- 7---- 7-- 7------ 7------|
http://classicalguitartablature.blogspot.com/
E|---- 7-------- 7-------- 7------|--------------------------------|
B|---- 9-------- 9-------- 8------|--------------------------------|
G|---- 8-------- 8-------- 7------|--------------------------------|
D|--------------------------------|--------------------------------|
A|---------- 7---- 7------10------|-- 5------ 0---- 0------ 0------|
E|--------------------------------|------------ 2------------------|
http://classicalguitartablature.blogspot.com/
E|--------------------------------|--------------------------------|
B|--------------------------------|--------------------------------|
G|--------------------------------|--------------------------------|
D|--------------------------------|--------------------------------|
A|--------------------------------|---- 5---- 0---- 0------ 0------|
E|---- 3---- 3-- 3 3-- 0-- 5------|-------------- 2------------ 2 3|
http://classicalguitartablature.blogspot.com/
E|------------------------------ 2|--------------------------------|
B|------------------------------ 3|--------------------------------|
G|------------------------------ 2|--------------------------------|
D|--------------------------------|--------------------------------|
A|--------------------------------|---- 5---- 0---- 0 2---- 0------|
E|---- 3---- 2-- 0 5--------------|-------------- 2----------------|
http://classicalguitartablature.blogspot.com/
E| 3------------------------------| 2-------------------- 2--------|
B| 3---------------------- 5------| 3-------------------- 3------ 3|
G| 4---------------------- 6------| 2-------------------- 2------ 4|
D|------------------------ 7------|------------------------------ 5|
A|--------------------------------|-- 5------ 0---- 0 2-- 0--------|
E|---- 3---- 3-- 3 3-- 0-- 5------|-------------- 2---------- 2-- 3|
http://classicalguitartablature.blogspot.com/
E|--------------------------------|--------------------------------|
B|--------------------------------|--------------------------------|
G|--------------------------------|--------------------------------|
D|--------------------------------|--------------------------------|
A|--------------------------------|--------------------------------|
E|------ 3-- 2-- 0 5--------------|--------------------------------|
http://classicalguitartablature.blogspot.com/

0 ความคิดเห็น:

แสดงความคิดเห็น