To celebrate the anniversary, I am giving you (finally...) : iPhone LickByNeck !!!!!!

Lost In Your Eyes (BASIC)

Debbie Gibson's tune fingerstyle chord melody guitar BASIC arrangement played in the key of C.

Lost In Your Eyes-Debbie Gibson-BASIC Arrangement played in the key of C.
http://classicalguitartablature.blogspot.com/
E|--------------------------------|---------------- 3--------------|
B| 3------ 3-------------- 3------|-------- 1------------ 1 0------|
G|---- 5-- 5-- 5------------------|------ 2-- 2-- 2-------------- 0|
D|-------- 5-- 5------ 5------ 5--|---- 3------ 3------------------|
A| 3------------ 3 3--------------|--------------------------------|
E|--------------------------------| 3------------------------------|
http://classicalguitartablature.blogspot.com/
E|--------------------------------|------------------ 1------ 0----|
B|-------- 1---------- 1---- 0 1--|-------- 1-------- 1------ 1-- 8|
G|-------- 0---------- 0---- 0 2--|-------- 2-------------------- 9|
D|---- 2-- 2-------------- 2---- 3|---- 3-- 3------------ 3--------|
A| 3------------ 3 3--------------| 3------------ 3 3--------------|
E|--------------------------------|--------------------------------|
http://classicalguitartablature.blogspot.com/
http://classicalguitartablature.blogspot.com/
E|------------------ 8------ 8----|--------------------------------|
B|-------- 8-------- 8--12--------|---------- 8--10------ 8---- 6--|
G|-------- 9--------------------10|------10--10--10----10------ 7--|
D|--10----10--------------------10|----10----10--10----10------ 5--|
A|--------------------------------|--------------------------------|
E| 8------------ 8----------------| 8-------------- 8---------- 7--|
http://classicalguitartablature.blogspot.com/
E| 0------ 0------------------ 0--| 1---- 0------------------------|
B| 1------ 1-------- 1------ 3----| 1---- 1---------- 1------ 3----|
G| 2------ 2---------- 2---- 2----| 2---------- 2---- 0---------- 5|
D|---- 2------------ 2---- 2---- 3|---- 3---- 3---------- 0--------|
A| 0---------- 0-- 0--------------|--------------------------------|
E|--------------------------------| 1-------------- 3--------------|
http://classicalguitartablature.blogspot.com/
E|--------------------------------|-------------- 3----------------|
B|------ 3---------------- 3------|-------- 1------------ 1 0------|
G|-------- 5----------------------|------ 2 2-- 2---------------- 0|
D|-- 5---------------- 5----------|---- 3------ 3------------------|
A| 3------------ 3 3---------- 3--|--------------------------------|
E|--------------------------------| 3------------------------------|
http://classicalguitartablature.blogspot.com/
E|--------------------------------|------------------ 1------ 0----|
B|-------- 1---------- 1---- 0 1--|-------- 1-------- 1------ 1-- 8|
G|-------- 0---------- 0---- 0 2--|-------- 2-------------------- 9|
D|---- 2-- 2-------------- 2---- 3|---- 3-- 3------------ 3--------|
A| 3------------ 3 3--------------| 3------------ 3 3--------------|
E|--------------------------------|--------------------------------|
http://classicalguitartablature.blogspot.com/
E|------------------ 8------ 8----|--------------------------------|
B|-------- 8-------- 8--12--------|---------- 8--10------ 8---- 6--|
G|-------- 9--------------------10|------10--10--10----10------ 7--|
D|--10----10--------------------10|----10----10--10----10------ 5--|
A|--------------------------------|--------------------------------|
E| 8------------ 8----------------| 8-------------- 8---------- 7--|
http://classicalguitartablature.blogspot.com/
E| 0------ 0------------------ 0--| 1---- 0------------------------|
B| 1------ 1-------- 1------ 3----| 1---- 1---------- 1------ 3----|
G| 2------ 2---------- 2---- 2----| 2---------- 2---- 0---------- 5|
D|---- 2------------ 2---- 2---- 3|---- 3---- 3---------- 0--------|
A| 0---------- 0-- 0--------------|--------------------------------|
E|--------------------------------| 1-------------- 3--------------|
http://classicalguitartablature.blogspot.com/
E|--------------------------------|-------- 3----------------------|
B|-------- 3-------------- 3------|-------- 3-------------- 6 5----|
G|-------- 5-------------- 5------|---- 3---- 3-------- 3---- 3----|
D|-- 5---- 5---------- 5----------|---- 3-------- 3-- 5-------- 5--|
A| 3---------- 3-- 3---------- 3--|---------------- 3--------------|
E|--------------------------------| 3------------------------------|
http://classicalguitartablature.blogspot.com/
E|-- 5-- 5-- 5 5-- 5 3-- 3--------| 1-- 0 0------ 0-- 1 0----------|
B|-- 6-- 6-- 6 6-- 4 3-- 3-- 6----| 1-- 1 1---- 1 1-- 1 1 3 1-- 3--|
G| 5 5-- 5-- 5 5-- 4 4-- 4--------| 0-- 0 0---- 0 0-- 0 0 0-- 0 0--|
D| 7------------------------------|---------- 2---------- 2---- 2--|
A| 8------------------------------| 3-------------- 3--------------|
E|-------------- 3----------------|--------------------------------|
http://classicalguitartablature.blogspot.com/
E|---------- 8 7-- 7-------- 7-- 8|--10-- 8---- 8-- 6--------------|
B|--------10-- 9---- 9-- 9------ 8|-- 8-- 8---- 8-- 6------ 6------|
G|----10--10---------- 7-------- 9|-- 9-- 9-- 9---- 7-- 7---- 7----|
D|10----10------------------------|------------------ 8-------- 8--|
A| 8------------------------------| 0------------------------------|
E|---------------- 0--------------|---------------- 8--------------|
http://classicalguitartablature.blogspot.com/
E|------ 5 5-- 5-- 3 1---- 5---- 3|-- 0---------- 0----------------|
B|------ 1 1-- 0-- 0 0---------- 0|-- 0------ 3-- 1-- 3 1------ 1--|
G|---- 2 2-- 2 0-- 0---- 0--------| 0 0------ 4-- 0-- 0 0------ 0--|
D|---- 3--------------------------|---- 0---- 3------ 2 2-- 2------|
A|--------------------------------|---------------- 0--------------|
E| 1------------ 1-------------- 0|------ 4------------------------|
http://classicalguitartablature.blogspot.com/
E|-------- 0----------------------|--------------------------------|
B| 6---------------- 3------ 1-- 3|------ 3-------------- 1 0------|
G| 5-- 5------ 0---- 2------ 2-- 2|---- 2---- 2---- 2--------------|
D|---- 7---- 2-------------- 2-- 3|-- 3-------- 3-------------- 5--|
A| 5------------------------------|------------------------------ 3|
E|-------- 0------ 1-------- 2-- 3|--------------------------------|
http://classicalguitartablature.blogspot.com/
E|--------------------------------|------------------ 1------ 0----|
B|-------- 3------------------ 1--|-------- 1-------- 1------ 1-- 8|
G|-------- 5---------- 5-- 4 5 2--|-------- 2-------------------- 9|
D|---- 5-------------- 5----------|-- 3---- 3------------ 3------10|
A|-------------- 3 3------------ 3|------------ 3 3----------------|
E|--------------------------------|------------------------------ 8|
http://classicalguitartablature.blogspot.com/
E|-------------------- 8------ 8--|---------------------- 7--------|
B|-- 8---------------- 8----12----|------------ 8--10--------------|
G|-- 9---------------- 9----------|10----10--10---- 7-- 7----------|
D|--10--10----------------10------|----1010------ 9-- 9------ 9----|
A|--------------------------------|-------------- 7----------------|
E|-------------- 8 8--------------| 8------------------------------|
http://classicalguitartablature.blogspot.com/
E| 8------ 8-------- 5-- 7-- 8----|--------------------------------|
B| 5------ 5-------- 5-- 5-- 5----| 6 5 3---------- 1--------------|
G| 5------ 5-------- 5-- 5-- 5----| 5 5 5---------- 2--------------|
D|---- 5--------------------------| 3-- 3-------- 3----------------|
A| 0---------- 0-- 0--------------| 5------------------------------|
E|--------------------------------|-------- 0---- 3----------------|
http://classicalguitartablature.blogspot.com/
E|-------------- 0----------------|--------------------------------|
B|---------------------- 3-- 1----| 1------ 1 3 1-------- 1------ 1|
G|--------------------------------| 0------ 0-- 2---------- 0---- 2|
D|--------------------------------|---- 2-------------- 2----------|
A|--------------------------------| 3-------------- 3---------- 3--|
E|--------------------------------|--------------------------------|
http://classicalguitartablature.blogspot.com/
E|--------------------------------|--------------------------------|
B|------ 1-------- 1------ 0------|--------------------------------|
G|------ 2-------- 2------ 0------|---- 0--------------------------|
D|-- 3-------- 3 3-------- 0------|-- 2----------------------------|
A| 3------------ 3----------------|-- 3----------------------------|
E|---------------------- 3--------|--------------------------------|
http://classicalguitartablature.blogspot.com/

0 ความคิดเห็น:

แสดงความคิดเห็น