To celebrate the anniversary, I am giving you (finally...) : iPhone LickByNeck !!!!!!

Man In The Mirror (BASIC)

Michael Jackson's tune fingerstyle chord melody guitar BASIC arrangement played in the key of G.

Man In The Mirror-Michael Jackson-BASIC Arrangement played in the key of G.
http://classicalguitartablature.blogspot.com/
E|--------------------------------|--------------------------------|
B| 0------ 3---------- 3----------|---- 3--------------------------|
G| 0---------- 2-------------- 0--|-------------------- 0----------|
D|---- 0--------------------------|------------ 4-------------- 2--|
A|--------------------------------|---------------------------- 3--|
E| 3------------------------------|--------------------------------|
http://classicalguitartablature.blogspot.com/
E|-------------------- 0----------|-------------------- 0----------|
B|-------- 3-------------- 3------|-------- 3-------------- 3------|
G|---- 0------ 0-------------- 0--|---- 2------ 2-------------- 0--|
D|--------------------------------| 2------------------------------|
A|--------------------------------|--------------------------------|
E|--------------------------------|--------------------------------|
http://classicalguitartablature.blogspot.com/
http://classicalguitartablature.blogspot.com/
E|--------------------------------|--------------------------------|
B|-------- 0-------------- 0------|-------- 0----------------------|
G|---- 0------ 0-- 2-- 0----------|-- 0-------- 0-- 2-- 0-- 2------|
D|--------------------------------|---------------------------- 2--|
A|--------------------------------|---------------- 5--------------|
E| 3-------------- 2--------------| 0------------------------------|
http://classicalguitartablature.blogspot.com/
E|---------------- 0--------------|---------------- 0--------------|
B|-------- 3---------- 3----------|-------- 3---------- 3------ 0--|
G|---- 0------ 0---------- 0------|---- 2------ 2---------- 0 2----|
D|---------------------------- 2--|--------------------------------|
A| 3------------------------------|--------------------------------|
E|--------------------------------|--------------------------------|
http://classicalguitartablature.blogspot.com/
E|--------------------------------|---------------------------- 0--|
B|---- 0--------------------------|---------- 0 1-- 3------ 3-- 3--|
G|------------ 2------ 0-- 0 0-- 0|-- 2------------------------ 0--|
D|-------- 0---------------- 2 2 2|-------- 2---------- 0----------|
A|--------------------------------|---------------- 5--------------|
E| 3-------------- 2------------ 0|--------------------------------|
http://classicalguitartablature.blogspot.com/
E|--------------------------------|--------------------------------|
B|---- 3------ 1 0 1 0------------|------------ 3------------------|
G|-------------------- 2------ 2--|-------- 2-------- 2-- 0-- 2----|
D|-------- 2----------------------|---- 2--------------------------|
A| 3------------------------------| 3------------------------------|
E|--------------------------------|--------------------------------|
http://classicalguitartablature.blogspot.com/
E|--------------------------------|--------------------------------|
B|-- 0-- 0---------------- 0------|---- 0-- 0-------------- 0------|
G|-- 0-------- 0-- 2-- 0------ 2 0|------------ 0-- 2-- 0------ 2--|
D|-- 0----------------------------|--------------------------------|
A|--------------------------------|---------------- 5--------------|
E| 3-------------- 2--------------| 0------------------------------|
http://classicalguitartablature.blogspot.com/
E|--------------------------------|--------------------------------|
B|---- 0-- 0----------------------|------------ 0-------------- 0--|
G|---- 0-- 0-- 0-- 2-- 0-- 2 0----|-------- 0---- 2-------- 0 2----|
D|---- 2-- 2------ 2-- 2------ 2--|---- 2-------------- 2----------|
A| 3-------------- 3--------------| 3-------------- 3--------------|
E|--------------------------------|--------------------------------|
http://classicalguitartablature.blogspot.com/
E|--------------------------------|-------- 0----------------------|
B|--------------------------------| 0-- 3---------- 0-- 3---- 0 1--|
G|-------- 2 0 2 0-------- 0-- 0--| 0-------------- 0 5------------|
D|---- 0-------------- 0----------| 0-------------- 0--------------|
A|--------------------------------|-------------- 5-------------- 3|
E| 3-------------- 2--------------| 0------------------------------|
http://classicalguitartablature.blogspot.com/
E|--------------------------------|--------------------------------|
B| 3-------- 3-- 3 3-- 1-- 0------|---- 0--------------------------|
G|------ 0-- 0-- 0 0---------- 2--| 2 0-------- 2------ 0----------|
D|---- 2--------------------------| 2---------- 2-------------- 2--|
A|---------------- 3--------------| 3-------------- 3------------ 0|
E|--------------------------------|--------------------------------|
http://classicalguitartablature.blogspot.com/
E|--------------------------------|--------------------------------|
B|---- 0-- 1-- 0 1---- 0-- 3------|---- 0-- 1-- 0-- 1-- 0-- 3------|
G|---- 0-- 0-- 0-- 0-- 0----------|---- 0-- 0-- 0-- 0-- 0----------|
D|---- 2-- 2-- 2-- 2-- 2------ 2--|---- 0-- 0-- 0-- 0-- 0------ 0--|
A|---------------- 0--------------| 2-------------- 2--------------|
E|--------------------------------|--------------------------------|
http://classicalguitartablature.blogspot.com/
E|------------ 0------------------|--------------------------------|
B|-------- 0 3-------- 0----------|---------------------------- 0--|
G|-------- 0 0---------------- 2--|-------- 2-- 0---------- 0------|
D|---- 2-- 2 2--------------------|---- 0-------------- 0----------|
A| 3-------------- 3--------------| 2-------------- 2--------------|
E|--------------------------------|--------------------------------|
http://classicalguitartablature.blogspot.com/
E|--------------------------------|---------------------------- 0--|
B| 1-- 0-- 1-- 1------ 0-- 1-- 0--| 1-- 0-- 3-------------- 0 3 3--|
G| 0-- 0-- 0-- 0------ 0-- 0-- 0--| 0-- 0-- 0-------------- 0 0 0--|
D| 2-- 2 2---- 2------ 2-- 2-- 2--| 0-- 0------ 0------ 0----------|
A| 0-------------- 0--------------| 2-------------- 2--------------|
E|--------------------------------|--------------------------------|
http://classicalguitartablature.blogspot.com/
E|------------ 0------------------|------------------ 0-- 3---- 3--|
B|------ 3---- 3-------- 3---- 3--|-- 3-- 3---- 3 3-- 3-- 3---- 3--|
G|------ 0-------------- 0---- 5--|-- 5---- 5-- 5 5-- 5-- 5---- 4--|
D|---- 2 2------------ 2------ 5--|-- 5---- 5 5---- 5--------------|
A| 3------------ 3----------------| 5-------------- 5--------------|
E|--------------------------------|------------------------------ 3|
http://classicalguitartablature.blogspot.com/
E|-------- 7---------- 0-- 3-- 5--| 7---------------- 5------------|
B|---------------- 3--------------| 8------10-- 8 8----------------|
G|------ 4-------- 0--------------| 9------ 9-- 9 5-- 5-------- 5--|
D|---- 5---------- 0--------------|-------------- 5----------------|
A|------------ 2------------------|-------------- 5------------ 5--|
E|--------------------------------| 8------------------------------|
http://classicalguitartablature.blogspot.com/
E|------ 7------------ 0-- 3-- 5--|---- 7---------- 5--------------|
B|---------------- 3------------ 8|---- 8----10---- 8 8-------- 8--|
G|------ 4-------- 0------------ 9|---- 9---- 9---- 5 5-------- 5--|
D|---- 5---------- 0--------------|------------------ 5-------- 5--|
A|------------ 2------------------|---------------- 5---------- 5--|
E| 3------------------------------| 8-------- 8--------------------|
http://classicalguitartablature.blogspot.com/
E|-------- 7----------------------|--------------------------------|
B|----------------10-- 8---- 8----| 8------ 8------ 810------------|
G|------ 4------------ 7------ 9--| 9------------ 9 9 9-------- 7--|
D|---- 5---------- 9-- 9----------|----10---------- 9 9---- 9------|
A|--------------------------------|--------------------------------|
E| 3---------- 7---------- 7------| 8-------------- 9--------------|
http://classicalguitartablature.blogspot.com/
E|--------------------------------|---------------------------- 3--|
B| 6 6 6 6-------- 6-- 6 6--------| 6 6 6 6-------- 6-- 6------ 3--|
G| 5 5 5 5---- 7 7 5-- 5 5---- 7--| 5 5 5 5---- 7-- 5-- 5------ 0--|
D| 4 4-- 4-------- 4-- 4 4--------| 4 4-- 4-------- 4-- 4----------|
A| 5-------------- 5--------------| 5-------------- 5-- 5----------|
E|--------------------------------|---------------------------- 3--|
http://classicalguitartablature.blogspot.com/
E|--------------------------------|--------------------------------|
B|------------ 3------ 3----------|-- 0-- 1 3------ 0-- 3----------|
G|------------ 2------ 2----------|-- 0 0------------ 5-------- 5--|
D|------------ 0------ 0----------|---- 0 0------------------------|
A|--------------------------------|------------ 5------------------|
E|---- 3------ 2-------------- 0--|--------------------------------|
http://classicalguitartablature.blogspot.com/
E|--------------------------------|--------------------------------|
B| 1-- 0--------------------------|------------ 1------ 3----------|
G| 0-- 0-- 2-- 2------ 0------ 0--|---- 0------ 0------ 2------ 3--|
D| 2-- 2-- 2-- 2------ 2------ 2--|---- 2------ 2------ 1------ 2--|
A| 3---------- 3-------------- 3--|--------------------------------|
E|--------------------------------|-------- 0------ 1------ 2------|
http://classicalguitartablature.blogspot.com/
E|--------------------------------|--------------------------------|
B| 3---- 3---- 3------ 3----------|-- 0-- 1 3------ 0-- 3----------|
G| 0---- 0---- 2------ 2----------|-- 0 0------------ 5-------- 5--|
D| 0---- 0---- 0------ 0----------|---- 0 0------------------------|
A|--------------------------------|------------ 5---------------- 3|
E| 3---------- 2-------------- 0--|--------------------------------|
http://classicalguitartablature.blogspot.com/
E|--------------------------------|--------------------------------|
B| 1-- 0--------------------------| 1-- 1------ 1------------------|
G| 0-- 0-- 2-- 2------ 0----------| 0-- 0------ 0------------------|
D| 2------ 2-- 2------ 2----------| 2-- 2------ 2------------------|
A|--------------------------------| 3-- 3------ 3------------------|
E|--------------------------------|--------------------------------|
http://classicalguitartablature.blogspot.com/

0 ความคิดเห็น:

แสดงความคิดเห็น