To celebrate the anniversary, I am giving you (finally...) : iPhone LickByNeck !!!!!!

Nothing Else Matters (BASIC)

Metallica's tune fingerstyle chord melody guitar BASIC arrangement played in the key of Em.

Nothing Else Matters-Metallica -BASIC ARRANGEMENT played in the key of Em.
http://classicalguitartablature.blogspot.com/
E|------------------------| 0----------------------|
B|---------------- 0------|-------- 0--------------|
G|-------- 0--------------|---------------- 0------|
D|------------------------|------------------------|
A|------------------------|------------------------|
E| 0----------------------|------------------------|
http://classicalguitartablature.blogspot.com/
E|---------------------- 0|------------------------|
B|---------------- 0------|------ 0----------------|
G|-------- 0--------------|---------------- 0------|
D|------------------------|------------------------|
A|------------------------|------------------------|
E| 0----------------------|------------------------|
http://classicalguitartablature.blogspot.com/
http://classicalguitartablature.blogspot.com/
E|---------------------- 0|------------------------|
B|---------------- 0------|------ 0----------------|
G|------ 0----------------|-------------- 0--------|
D|------------------------|------------------------|
A|------------------------|------------------------|
E| 0----------------------|------------------------|
http://classicalguitartablature.blogspot.com/
E|---------------------- 0|-------------- 7--------|
B|-------------- 0--------|------ 0----------------|
G|-------- 0--------------|------------------------|
D|------------------------|------------------------|
A|------------------------|------------------------|
E| 0----------------------|------------------------|
http://classicalguitartablature.blogspot.com/
E| 7----------------------| 7 0--------------------|
B|---------------- 0------|-------- 0--------------|
G|-------- 0--------------|---------------- 0------|
D|------------------------|------------------------|
A|------------------------|------------------------|
E| 0----------------------|------------------------|
http://classicalguitartablature.blogspot.com/
E|-------------- 7------ 8|------ 7 8-- 7-- 5---- 7|
B|---------------------- 0|------------------------|
G|-------- 0--------------| 0----------------------|
D|------------------------|------------------------|
A|------------------------|------------------------|
E| 0----------------------|------------------------|
http://classicalguitartablature.blogspot.com/
E|------ 5-- 3---- 0------| 0----------------------|
B| 0----------------------| 5------------ 5--------|
G| 0----------------------|-------- 5--------------|
D|------------------------|------------------------|
A|------------------------| 0----------------------|
E|------------------------|------------------------|
http://classicalguitartablature.blogspot.com/
E| 2-- 0------------------|---------------------- 0|
B|-------- 5--------------|---------------- 5------|
G|---------------- 5------|------ 5----------------|
D|------------------------|------------------------|
A|------------------------| 0----------------------|
E|------------------------|------------------------|
http://classicalguitartablature.blogspot.com/
E|-------- 0------ 0------| 0-------------- 0------|
B|-------- 5------ 5------| 5---------- 5------ 5--|
G|-------- 5------ 5------|-------- 5--------------|
D|------------------------|------------------------|
A|-------- 0------ 2------| 3----------------------|
E|------------------------|------------------------|
http://classicalguitartablature.blogspot.com/
E| 3-- 0---------- 0------| 0-------------------- 0|
B|-------- 5------ 5------| 7------------ 7--------|
G|------------ 5----------| 7---------- 7---- 7----|
D|------------------------| 0---- 0----------------|
A|------------------------|------------------------|
E|------------------------|------------------------|
http://classicalguitartablature.blogspot.com/
E|-- 5-------------- 0----| 0----------------------|
B|------ 7-- 0------------|----------------12------|
G|-------------- 4--------|--------12--------------|
D|------------------------|------------------------|
A|------------------------|------------------------|
E|------------------------| 0----------------------|
http://classicalguitartablature.blogspot.com/
E|12----------------------|------------------------|
B|------ 0----------------|---------------- 0------|
G|---------------- 0------|-------- 0--------------|
D|------------------------|------------------------|
A|------------------------|------------------------|
E|------------------------| 0----------------------|
http://classicalguitartablature.blogspot.com/
E| 0----------------------|------------------------|
B|------ 0----------------|---------------- 0------|
G|-------------- 0--------|-------- 0--------------|
D|------------------------|------------------------|
A|------------------------|------------------------|
E|------------------------| 0----------------------|
http://classicalguitartablature.blogspot.com/
E| 0----------------------|------------------------|
B|-------- 0--------------|---------------- 0------|
G|---------------- 0------|-------- 0--------------|
D|------------------------|------------------------|
A|------------------------|------------------------|
E|------------------------| 0----------------------|
http://classicalguitartablature.blogspot.com/
E| 0----------------------|-------------------- 0--|
B|-------- 0--------------|---------------- 0------|
G|---------------- 0------|------------ 0----------|
D|------------------------|------------------------|
A|------------------------|------------------------|
E|------------------------| 0----------------------|
http://classicalguitartablature.blogspot.com/
E| 7----------------------|-------------- 2--------|
B| 8----------------------|-------------- 3--------|
G| 9----------------------|-------- 2--------------|
D|------------------------| 0----------------------|
A|------------------------|---------------------- 3|
E|------------------------|------------------------|
http://classicalguitartablature.blogspot.com/
E|-------------- 0--------|-------------------- 0--|
B|-------------- 1--------|---------------- 0------|
G|------ 0----------------|------------ 0----------|
D|------------------------|------------------------|
A|------------------------|------------------------|
E|------------------------| 0----------------------|
http://classicalguitartablature.blogspot.com/
E| 7----------------------|-------------- 2--------|
B| 8----------------------|-------------- 3--------|
G| 9----------------------|-------- 2--------------|
D|------------------------| 0----------------------|
A|------------------------|---------------------- 3|
E|------------------------|------------------------|
http://classicalguitartablature.blogspot.com/
E|-------------- 0--------|------------------------|
B|-------------- 1--------|-------------------- 8--|
G|------ 0----------------|---------------- 9------|
D|------------------------|------------ 9----------|
A|------------------------|------------------------|
E|------------------------| 0----------------------|
http://classicalguitartablature.blogspot.com/
E| 7----------------------|------ 5----------------|
B| 8----------------------|---------- 7------------|
G| 9----------------------|---------------- 7------|
D|------------------------| 0----------------------|
A|------------------------|------------------------|
E|------------------------|------------------------|
http://classicalguitartablature.blogspot.com/
E|------ 3----------------|------ 3----------------|
B|---------- 5------------|------------ 3----------|
G|---------------- 5------|---------------- 4------|
D|------------------------|------------------------|
A|------------------------|---------------------- 2|
E|------------------------| 3----------------------|
http://classicalguitartablature.blogspot.com/
E|-------- 2--------------|------------------------|
B|---------- 4------------|---------------- 0------|
G|---------------- 2------|------ 0----------------|
D|------------------------|------------------------|
A|------------------------|------------------------|
E|------------------------| 0----------------------|
http://classicalguitartablature.blogspot.com/
E| 0----------------------|---------------------- 0|
B|-------- 0--------------|-------------- 0--------|
G|---------------- 0------|-------- 0--------------|
D|------------------------|------------------------|
A|------------------------|------------------------|
E|------------------------| 0----------------------|
http://classicalguitartablature.blogspot.com/
E|------------------------|---------------- 0---- 0|
B|------ 0----------------|---------------- 0------|
G|-------------- 0--------|-------- 0------ 0------|
D|------------------------|------------------------|
A|------------------------|------------------------|
E|------------------------| 0----------------------|
http://classicalguitartablature.blogspot.com/
E|------------ 0-- 0 0-- 3|-- 0-- 0----------------|
B| 0---------- 0-- 0 0-- 3|------------------------|
G| 0---------- 0-- 0 0----| 2-------------- 2------|
D|---------------------- 0|------------------------|
A|------------------------|---------------------- 3|
E|------------------------|------------------------|
http://classicalguitartablature.blogspot.com/
E|------------------------|-------------- 0------ 0|
B|-------------- 1--------|---------------------- 0|
G|------ 0----------------|------------ 0-------- 0|
D|------------------------|-------- 2--------------|
A|------------------------|------------------------|
E|------------------------| 0----------------------|
http://classicalguitartablature.blogspot.com/
E|------ 0------ 0--------|---------- 0------------|
B|------ 0---------- 3-- 3|------ 3---------- 3----|
G|------ 0------ 0-- 0-- 2|------------------------|
D|---------------------- 0|------------------------|
A|------------------------|---------------------- 3|
E|------------------------|------------------------|
http://classicalguitartablature.blogspot.com/
E|------------------------|-------------------- 3--|
B|------------------------|-------------- 0---- 0--|
G|-------------- 0--------|-------- 0--------------|
D|-------- 2--------------|------------------------|
A|------------------------|------------------------|
E|------------------------| 0----------------------|
http://classicalguitartablature.blogspot.com/
E| 3 3-------- 3-- 3------|------ 0----------------|
B| 0 0-------- 0-- 0 0-- 3|-------------- 3--------|
G| 0 0------------ 0-- 0 2|------------------ 2----|
D|------------------------| 0----------------------|
A|------------------------|------------------------|
E|------------------------|------------------------|
http://classicalguitartablature.blogspot.com/
E|------------------------|-------------- 3------ 2|
B|-------------- 1--------|-------------- 3------ 4|
G|-------------- 0--------|------ 0-------------- 2|
D|-------- 2--------------|------------------------|
A| 3----------------------|---------------------- 2|
E|------------------------| 3----------------------|
http://classicalguitartablature.blogspot.com/
E|------ 2------ 3------ 2|---- 0---------------- 0|
B|------ 4------ 4------ 0|---- 0---------- 0------|
G|------ 2-------- 2---- 0|---- 0-- 0--------------|
D|------------------------|------------------------|
A|------------------------|------------------------|
E|---------------------- 0|------------------------|
http://classicalguitartablature.blogspot.com/
E|------------------------|------------------------|
B|-------- 0--------------|---------------- 0------|
G|-------------- 0--------|------ 0----------------|
D|------------------------|------------------------|
A|------------------------|------------------------|
E|------------------------| 0----------------------|
http://classicalguitartablature.blogspot.com/
E| 0----------------------|-------------- 0-- 0-- 0|
B|-------- 0--------------|---------------- 0 0-- 0|
G|------------------------|-------- 0-------- 0-- 0|
D|------------------------|------------------------|
A|------------------------|------------------------|
E|-------------- 3-- 2----| 0----------------------|
http://classicalguitartablature.blogspot.com/
E|------ 0------ 0------ 2|------ 3------ 0--------|
B|------ 0------ 0------ 3|------ 3----------------|
G|------ 0------ 0------ 2|------ 2----------------|
D|---------------------- 0|------------------------|
A|------------------------|------------------------|
E|------------------------|------------------------|
http://classicalguitartablature.blogspot.com/
E|------------------------|-------------- 0-- 0-- 0|
B|------------------------|-------------- 0-- 0-- 0|
G|------------------------|-------------- 0-- 0-- 0|
D|-------- 2--------------|------ 2----------------|
A| 3----------------------|------------------------|
E|-------------- 3-- 2----| 0----------------------|
http://classicalguitartablature.blogspot.com/
E|------ 0------ 0--------|-------- 0--------------|
B|------------------ 0----| 3-------------- 3------|
G|------------------------| 2----------------------|
D|------------------------| 0----------------------|
A|------------------------|---------------------- 3|
E|------------------------|------------------------|
http://classicalguitartablature.blogspot.com/
E|------------------------|------ 7------ 5------ 3|
B|------------------------|------ 0-------------- 0|
G|---------- 0------------|------ 0-------------- 0|
D|------ 2----------------|------------------------|
A|------------------------|------------------------|
E|---------------- 3-- 2--| 0----------------------|
http://classicalguitartablature.blogspot.com/
E|------ 2------ 0------ 2|-------- 3--------------|
B|---------------------- 3|-------------- 3--------|
G|---------------------- 2|------------------ 2----|
D|---------------------- 0|------------------------|
A|------------------------|------------------------|
E|------------------------|------------------------|
http://classicalguitartablature.blogspot.com/
E|------------------------|-------------- 3------ 2|
B|------------------------|-------------- 3------ 4|
G|-------------- 0--------|------ 0-------------- 2|
D|-------- 2--------------|------------------------|
A| 3----------------------|---------------------- 2|
E|------------------------| 3----------------------|
http://classicalguitartablature.blogspot.com/
E|------ 2------ 3------ 2|---- 0---------------- 0|
B|------ 4------ 4------ 0|---- 0---------- 0------|
G|------ 2-------- 2---- 0|---- 0-- 0--------------|
D|------------------------|------------------------|
A|------------------------|------------------------|
E|---------------------- 0|------------------------|
http://classicalguitartablature.blogspot.com/
E|------------------------|------------------------|
B|-------- 0--------------|---------------- 0------|
G|-------------- 0--------|------ 0----------------|
D|------------------------|------------------------|
A|------------------------|------------------------|
E|------------------------| 0----------------------|
http://classicalguitartablature.blogspot.com/
E| 0----------------------|------ 0------ 0------ 0|
B|-------- 0--------------|------ 0------ 0------ 0|
G|------------------------|------ 0------ 0------ 0|
D|------------------------|------------------------|
A|------------------------|------------------------|
E|-------------- 3-- 2-- 0|------------------------|
http://classicalguitartablature.blogspot.com/
E|------ 0-------- 0---- 2|------ 3------ 0--------|
B|------ 0-------- 0---- 3|------ 3----------------|
G|------ 0-------- 0---- 2|------ 2----------------|
D|------------------------| 0----------------------|
A|------------------------|---------------------- 3|
E|------------------------|------------------------|
http://classicalguitartablature.blogspot.com/
E|------------------------|-------------- 7-- 7-- 7|
B|------------------------|-------------- 0-- 0-- 0|
G|-------- 0--------------|------ 0------ 0-- 0-- 0|
D|------------------------|------------------------|
A|------------------------|------------------------|
E|-------------- 3-- 2----| 0----------------------|
http://classicalguitartablature.blogspot.com/
E|------ 5------ 0------ 2|------ 3------ 3--------|
B|------ 0------ 0------ 3|------ 3------ 3------ 1|
G|------ 0------ 0------ 2|------ 2------ 2------ 0|
D|---------------------- 0|---------------------- 2|
A|------------------------|------------------------|
E|------------------------|------------------------|
http://classicalguitartablature.blogspot.com/
E|------------------------|-------------- 3-- 3-- 3|
B|------------------------|-------------- 0-- 0-- 0|
G|---------------- 0------|-------- 0---- 0-- 0-- 0|
D|-------- 2--------------|------------------------|
A| 3----------------------|------------------------|
E|------------------------| 0----------------------|
http://classicalguitartablature.blogspot.com/
E|------------ 2 0------ 2|-------- 3---- 0--------|
B|------------ 0-- 0---- 3|-------- 3------ 3------|
G|------------ 0-------- 2|-------- 2------ 2------|
D|---------------------- 0|------------------------|
A|------------------------|------------------------|
E|------------------------|------------------------|
http://classicalguitartablature.blogspot.com/
E|------------------------|-------------- 3--------|
B|------------------------|-------------- 3--------|
G|-------------- 0--------|-------- 0--------------|
D|-------- 2--------------|------------------------|
A| 3----------------------|------------------------|
E|------------------------| 3----------------------|
http://classicalguitartablature.blogspot.com/
E| 2-- 2-------- 2------ 2|---- 3------------------|
B| 4-- 4-------- 4--------| 0-- 0-------- 0--------|
G| 2-- 2-------- 2--------| 0-- 0------------------|
D|------------------------|------------------------|
A| 2----------------------|------------------------|
E|------------------------| 0----------------------|
http://classicalguitartablature.blogspot.com/
E| 3----------------------|------------------------|
B|------ 0----------------| 1-------------- 1------|
G|---------------- 0------| 0---------- 0----------|
D|------------------------|-------- 2---------- 2--|
A|------------------------| 3----------------------|
E|------------------------|------------------------|
http://classicalguitartablature.blogspot.com/
E|---------------------- 2|---------------- 2-- 2 2|
B|-------------- 2------ 3|---------- 3---- 3---- 3|
G| 2-------- 2------ 2-- 2|------ 2-------- 2-- 2 2|
D|-- 2---- 2------------ 0|------------------------|
A| 0----------------------|------------------------|
E|------------------------|------------------------|
http://classicalguitartablature.blogspot.com/
E|-- 3-- 2------ 0-- 2-- 2|---- 3 0----------------|
B|------ 3------ 3-- 3-- 1|---- 1 1-------------- 2|
G|------ 2------ 2-- 2-- 0|---- 0 0------ 0------ 2|
D|------------------------|---------------------- 2|
A|------------------------| 3-------------------- 0|
E|------------------------|------------------------|
http://classicalguitartablature.blogspot.com/
E|---------------------- 2|---------------- 2-- 2 2|
B|-------------- 2------ 3|---------- 3---- 3---- 3|
G|---------- 2------ 2-- 2|------ 2-------- 2-- 2 2|
D|------ 2-------------- 0|------------------------|
A|------------------------|------------------------|
E|------------------------|------------------------|
http://classicalguitartablature.blogspot.com/
E|-- 3-- 2------ 0-- 2-- 2|---- 3 0----------------|
B|------ 3------ 3-- 3-- 1|---- 1 1-------------- 2|
G|------ 2------ 2-- 2-- 0|---- 0 0------ 0------ 2|
D|------------------------|---------------------- 2|
A|------------------------| 3-------------------- 0|
E|------------------------|------------------------|
http://classicalguitartablature.blogspot.com/
E|---------------------- 2|---------------- 2-- 2 2|
B|-------------- 2------ 3|---------- 3---- 3---- 3|
G|---------- 2------ 2-- 2|------ 2-------- 2-- 2 2|
D|------ 2-------------- 0|------------------------|
A|------------------------|------------------------|
E|------------------------|------------------------|
http://classicalguitartablature.blogspot.com/
E|-- 3-- 2------ 0-- 2-- 2|---- 3 0----------------|
B|------ 3------ 3-- 3-- 1|---- 1 1-------------- 2|
G|------ 2------ 2-- 2-- 0|---- 0 0------ 0------ 2|
D|------------------------|---------------------- 2|
A|------------------------| 3-------------------- 0|
E|------------------------|------------------------|
http://classicalguitartablature.blogspot.com/
E|---------------------- 2|------------ 2-- 2------|
B|-------------- 2------ 3|------------ 3-- 3------|
G|---------- 2------ 2-- 2|------------ 2-- 2------|
D|------ 2----------------| 0----------------------|
A|------------------------|------------------------|
E|------------------------|------------------------|
http://classicalguitartablature.blogspot.com/
E| 2-- 3------------------| 3----------------------|
B| 0-------------- 0------|------ 0----------------|
G| 0------ 0--------------|-------------- 0--------|
D|------------------------|------------------------|
A|------------------------|------------------------|
E| 0----------------------|------------------------|
http://classicalguitartablature.blogspot.com/
E|---------------------- 3|----------------------12|
B|-------------- 0--------|------ 0----------------|
G|-------- 0--------------|---------------- 0------|
D|------------------------|------------------------|
A|------------------------|------------------------|
E| 0----------------------|---------------------- 0|
http://classicalguitartablature.blogspot.com/
E|----------------------14|----------------------15|
B|------12----------------|------12----------------|
G|--------------12--------|--------------12--------|
D|------------------------|------------------------|
A|------------------------|------------------------|
E|------------------------|---------------------- 0|
http://classicalguitartablature.blogspot.com/
E|----------------------17|------------------------|
B|------12----------------|--------12--------------|
G|--------------12--------|--------------12--------|
D|------------------------|------------------------|
A|------------------------|---------------------- 0|
E|------------------------|------------------------|
http://classicalguitartablature.blogspot.com/
E| 8-------------------- 8|------------------------|
B|-------- 5--------------|------ 5----------------|
G|---------------- 5------|-------------- 5--------|
D|------------------------|------------------------|
A|------------------------|------------------------|
E|------------------------|------------------------|
http://classicalguitartablature.blogspot.com/
E|---------------------- 8|------------------------|
B|-------------- 5--------|------ 5----------------|
G|-------- 5--------------|---------------- 5------|
D|------------------------|------------------------|
A| 0----------------------|------------------------|
E|------------------------|------------------------|
http://classicalguitartablature.blogspot.com/
E| 0----------------------|-------- 0--------------|
B|------ 1----------------|-------------- 1--------|
G|-------------- 0--------|------------------------|
D|------------------------|------------------------|
A| 3----------------------| 3----------------------|
E|------------------------|------------------------|
http://classicalguitartablature.blogspot.com/
E| 2----------------------|------ 0----------------|
B|-------- 3--------------|-------------- 3------ 0|
G|---------------- 2------|------------------------|
D| 0-------------------- 0|---------------------- 0|
A|------------------------|------------------------|
E|------------------------|---------------------- 0|
http://classicalguitartablature.blogspot.com/
E|-- 0--------------------| 0----------------------|
B|-- 0------------ 0------|---- 0---------- 0------|
G|-------- 0--------------|---------- 0------------|
D|------------------------|------------------------|
A|------------------------|------------------------|
E|------------------------|------------------------|
http://classicalguitartablature.blogspot.com/
E|------------------------| 0--------------------12|
B|---------------- 0------|------ 0----------------|
G|-------- 0--------------|---------------- 0------|
D|------------------------|------------------------|
A|------------------------|------------------------|
E| 0----------------------|---------------------- 0|
http://classicalguitartablature.blogspot.com/
E|----------------------14|----------------------15|
B|------12----------------|------12----------------|
G|--------------12--------|--------------12--------|
D|------------------------|------------------------|
A|------------------------|------------------------|
E|------------------------|---------------------- 0|
http://classicalguitartablature.blogspot.com/
E|----------------------17|------------------------|
B|------12----------------|--------12--------------|
G|--------------12--------|--------------12--------|
D|------------------------|------------------------|
A|------------------------|---------------------- 0|
E|------------------------|------------------------|
http://classicalguitartablature.blogspot.com/
E| 8-------------------- 8|------------------------|
B|-------- 5--------------|------ 5----------------|
G|---------------- 5------|-------------- 5--------|
D|------------------------|------------------------|
A|------------------------|------------------------|
E|------------------------|------------------------|
http://classicalguitartablature.blogspot.com/
E|---------------------- 8|------------------------|
B|-------------- 5--------|------ 5----------------|
G|-------- 5--------------|---------------- 5------|
D|------------------------|------------------------|
A| 0----------------------|------------------------|
E|------------------------|------------------------|
http://classicalguitartablature.blogspot.com/
E| 0----------------------|-------- 0--------------|
B|------ 1----------------|-------------- 1--------|
G|-------------- 0--------|------------------------|
D|------------------------|---------------------- 0|
A| 3----------------------| 3----------------------|
E|------------------------|------------------------|
http://classicalguitartablature.blogspot.com/
E|------ 3------ 3-- 5----|------ 3-- 5 5 6 5---- 3|
B|-- 5--------------------|-- 5--------------------|
G|------------------------|------------------------|
D|---------------------- 0|------------------------|
A|------------------------|------------------------|
E|------------------------|---------------------- 0|
http://classicalguitartablature.blogspot.com/
E|------------------------| 3----------------------|
B|-------------- 0--------|-------- 0--------------|
G|------ 0----------------|-------------- 0--------|
D|------------------------|------------------------|
A|------------------------|------------------------|
E|------------------------|------------------------|
http://classicalguitartablature.blogspot.com/
E|-------------- 7--------| 7---- 5 0------ 0-- 3--|
B|-------------- 0--------| 0---------- 3 0--------|
G|-------- 0------ 0------| 0----------------------|
D|------------------------|------------------------|
A|------------------------|------------------------|
E| 0----------------------| 0----------------------|
http://classicalguitartablature.blogspot.com/
E| 0----------------------| 0----------------------|
B|---------------- 0------|-------- 0--------------|
G|-------- 0--------------|---------------- 0------|
D|------------------------|------------------------|
A|------------------------|------------------------|
E| 0----------------------|------------------------|
http://classicalguitartablature.blogspot.com/
E|------------------------|------------------------|
B| 0----------------------| 0------ 0------ 0------|
G| 0----------------------| 0------ 0------ 0------|
D| 2----------------------| 2------ 2------ 2------|
A|------------------------|------------------------|
E| 0------ 0------ 0------| 0-- 0-- 0-- 0-- 0-- 0--|
http://classicalguitartablature.blogspot.com/
E| 7---------- 7------ 5--| 3-------- 3---- 5 3-- 2|
B| 0------ 0--------------| 0------ 0------------ 3|
G|---- 0------------------|---- 0---------------- 2|
D| 2----------------------|---------------------- 0|
A|------------------------|------------------------|
E| 0----------------------|------------------------|
http://classicalguitartablature.blogspot.com/
E|---- 3-- 2-- 0-- 2------|------------ 3-- 5-- 3--|
B|---- 3-- 3---------- 3--| 5---------- 5-- 5-- 5--|
G|---- 2-- 2--------------|-------- 5-------- 5 5--|
D|------------------------|------------------------|
A|------------------------| 3----------------------|
E|------------------------|------------------------|
http://classicalguitartablature.blogspot.com/
E|--------12----------12--|---------------------- 3|
B|12--12--12--12--12--12--|15--12----12------------|
G| 0-- 0-- 0-- 0-- 0-- 0--| 0------15------15--14--|
D| 0-- 0------ 0-- 0------| 0-------------------- 0|
A|------------------------|------------------------|
E| 0----------------------| 0----------------------|
http://classicalguitartablature.blogspot.com/
E|------ 5------ 5-- 4-- 3|------------------------|
B|-- 5--------------------| 1-------------- 1------|
G|------------------------| 0---------- 0------ 0--|
D|------------------------|-------- 2--------------|
A|------------------------| 3----------------------|
E| 0----------------------|------------------------|
http://classicalguitartablature.blogspot.com/
E| 3------ 2--------------| 3------ 2------ 5------|
B| 0-------------- 0------| 0----------------------|
G| 0----------------------| 0----------------------|
D|------------------------|------------------------|
A|------------------------|------------------------|
E| 0----------------------| 0----------------------|
http://classicalguitartablature.blogspot.com/
E| 3-- 2 3 2------ 3-- 2--|------------------------|
B|------------ 0----------| 0----------------------|
G|------------------------| 0---------- 0-- 2 0-- 2|
D| 0----------------------|-------- 2--------------|
A|------------------------| 3----------------------|
E|------------------------|---------------------- 3|
http://classicalguitartablature.blogspot.com/
E|------------------------|------------------------|
B|-------------------- 0 5|------ 3-- 4---- 3-- 0--|
G|-- 3 2------ 0-- 3---- 2|------------------------|
D|-------- 2------------ 4|------------------------|
A|------------------------| 2----------------------|
E|------------------------|------------------------|
http://classicalguitartablature.blogspot.com/
E| 0----------------------| 0----------------------|
B|---------------- 0------|-------- 0--------------|
G|-------- 0--------------|---------------- 0------|
D|------------------------|------------------------|
A|------------------------|------------------------|
E| 0----------------------|------------------------|
http://classicalguitartablature.blogspot.com/
E|---------------------- 0|------------------------|
B|-------------- 0--------|-------------- 3--------|
G|-------- 0--------------|------ 0----------------|
D|------------------------|------------------------|
A|------------------------|------------------------|
E| 0----------------------|------------------------|
http://classicalguitartablature.blogspot.com/
E|------------------------|------------------------|
B| 0-- 3-- 0--------------| 0----------------------|
G| 0-------------- 0------|-------- 0--------------|
D| 2----------------------|------------------ 4----|
A|------------------------|------------------------|
E| 0----------------------|------------------------|
http://classicalguitartablature.blogspot.com/
E|------------------------|------------------------|
B|------------------------|------------------------|
G|------------------------|------------------------|
D|---- 2------ 4------ 2--|------------------------|
A|------------------------|------------------------|
E|---- 0------------------|------------------------|
http://classicalguitartablature.blogspot.com/

0 ความคิดเห็น:

แสดงความคิดเห็น