To celebrate the anniversary, I am giving you (finally...) : iPhone LickByNeck !!!!!!

Rasputin (BASIC)

Boney M's tune fingerstyle chord melody guitar BASIC arrangement played in the key of Bm.

Rasputin-Boney M-BASIC ARRANGEMENT played in the key of Bm.
http://classicalguitartablature.blogspot.com/
E|--------------------------------|--------------------------------|
B|--------------------------------|--------------------------------|
G|---- 4------ 4------ 4------ 4--|---- 4------ 4------ 4------ 4--|
D|---- 4------ 4------ 4----------|------------ 4------ 4------ 4--|
A| 2------ 2------ 2------ 2------| 2---- 2-------- 2---- 2--------|
E|--------------------------------|--------------------------------|
http://classicalguitartablature.blogspot.com/
E|-------- 2------ 2---------- 2--| 3-- 5-- 3-- 2-- 2------------ 0|
B|-------- 3------ 3--------------|---------------------- 2---- 3--|
G| 4---------- 4------ 4-------- 2|--------------------------------|
D|---- 4--------------------------|--------------------------------|
A| 2------ 2------ 2------ 2------| 2------ 2------ 2------ 2------|
E|--------------------------------|--------------------------------|
http://classicalguitartablature.blogspot.com/
http://classicalguitartablature.blogspot.com/
E|------ 0------ 0----------------|---- 2--------------------------|
B|---------------- 0---- 2---- 3--| 5------ 3-- 2-- 0--------------|
G|-- 0------ 0---------- 0---- 0--| 3-------------- 2--------------|
D|-------------------- 2-------- 2|-------- 2---------- 0------ 0--|
A|--------------------------------|---------------- 2------ 2------|
E| 0------ 0------ 0------ 0------| 2------ 2----------------------|
http://classicalguitartablature.blogspot.com/
E|-------- 2------ 2---------- 2--| 3-- 5-- 3-- 2-- 2--------------|
B|-------- 3----------------------|---- 4---------- 3------ 2-- 3--|
G| 4---------- 4------ 4-------- 2|-------------------- 2----------|
D|---- 4--------------------------|--------------------------------|
A| 2------ 2------ 2------ 2------| 2------ 2------ 2------ 2------|
E|--------------------------------|--------------------------------|
http://classicalguitartablature.blogspot.com/
E| 0------ 0------ 0--------------|---- 2--------------------------|
B| 0------ 0-------------- 2-- 3--| 5------ 3-- 2-- 0--------------|
G| 0-------------------- 0--------| 3------ 3-- 3-- 2--------------|
D|---- 2------ 2------ 2----------| 2------ 2-- 2------ 0------ 0--|
A|--------------------------------|---------------- 2------ 2------|
E| 0------ 0------ 0------ 0------| 2------ 2----------------------|
http://classicalguitartablature.blogspot.com/
E|------------------------ 0------| 2-- 3-- 2-- 0------------------|
B| 0---------- 2-- 3--------------|---- 0-- 0------ 3------ 0------|
G| 2---------- 2-- 2---------- 2--|---------------- 2--------------|
D|---- 0-------------- 0----------|-------------------- 0------ 0--|
A| 2------ 2------ 2------ 2------| 2------ 2------ 2------ 2------|
E|--------------------------------|--------------------------------|
http://classicalguitartablature.blogspot.com/
E|--------------------------------|--------------------------------|
B| 2------ 2------ 2-- 0------ 0--| 2------------------------------|
G| 0------ 0------ 0------ 3 0----| 3------------------------------|
D|---- 2------ 2------------------|---- 4------ 4-- 4---------- 4--|
A|--------------------------------|--------------------------------|
E| 0------ 0------ 0------ 0------| 2------ 2------ 2------ 2------|
http://classicalguitartablature.blogspot.com/
E|------------------------ 0------| 2-- 3-- 2-- 0------------------|
B| 0---------- 2-- 3--------------|---- 0-- 0------ 3------ 0------|
G| 2---------- 2-- 2---------- 2--|---------------- 2--------------|
D|---- 0-------------- 0----------|-------------------- 0------ 0--|
A| 2------ 2------ 2------ 2------| 2------ 2------ 2------ 2------|
E|--------------------------------|--------------------------------|
http://classicalguitartablature.blogspot.com/
E|------------ 0------------------|--------------------------------|
B| 2-------------- 3------ 2------|--------------------------------|
G| 0-------------- 3------ 3------| 4 2------ 2-- 4----------------|
D|---- 2-------------- 2------ 2--| 4------ 4------ 4--------------|
A|--------------------------------| 2------ 2------ 2------ 2------|
E| 0------ 0------ 2------ 2------|--------------------------------|
http://classicalguitartablature.blogspot.com/
E| 7---- 7------------------------|--------------------------------|
B| 7------ 7------10--10--10---- 9|-- 9---- 9 9-- 7----------------|
G| 7-------------- 7-- 7-- 7---- 9|-- 9---- 9 9-- 8-- 9-- 8--------|
D|---- 9------ 9-- 7-- 7-- 7-- 7 9|-- 9---- 9 9-- 9-- 9-- 9-- 9----|
A|--------------------------------|--------------------------------|
E| 7------ 7------10------10------| 0------ 0---- 7-------- 7------|
http://classicalguitartablature.blogspot.com/
E|-- 5-- 5---- 5------------------|--------------------------------|
B|------ 5---- 5-- 9------ 9------| 7-- 7------ 7------------------|
G|-- 6-- 6---- 6-- 9--------------| 9------ 9----------------------|
D|-------------------- 9-- 9-- 9--| 9------------------ 9------ 9--|
A|--------------------------------|--------------------------------|
E| 5------ 5------ 0------ 0------| 7------ 7------ 7------ 7------|
http://classicalguitartablature.blogspot.com/
E| 7---- 7------------------------|--------------------------------|
B| 7------ 7------10--10--10---- 9|-- 9---- 9 9-- 7----------------|
G| 7-------------- 7-- 7-- 7---- 9|-- 9---- 9 9-- 8-- 9-- 8--------|
D|---- 9------ 9-- 7-- 7-- 7-- 7 9|-- 9---- 9 9-- 9-- 9-- 9-- 9----|
A|--------------------------------|--------------------------------|
E| 7------ 7------10------10------| 0------ 0---- 7-------- 7------|
http://classicalguitartablature.blogspot.com/
E|-- 5-- 5---- 5------------------|--------------------------------|
B|------ 5---- 5-- 9------ 9------| 7-- 7------ 7------------------|
G|-- 6-- 6---- 6-- 9--------------| 9------ 9----------------------|
D|-------------------- 9-- 9-- 9--| 9------------------ 9------ 9--|
A|--------------------------------|--------------------------------|
E| 5------ 5------ 0------ 0------| 7------ 7------ 7------ 7------|
http://classicalguitartablature.blogspot.com/
E|--------------------------------|-------- 2------ 2---------- 2--|
B| 7-- 7------ 7------------------|-------- 3----------------------|
G|-------- 9----------------------| 4---------- 4------ 4-------- 2|
D| 7------------------ 7----------|---- 4--------------------------|
A|--------------------------------| 2------ 2------ 2------ 2------|
E| 7------ 7------ 7------ 7------|--------------------------------|
http://classicalguitartablature.blogspot.com/
E| 3-- 5-- 3-- 2-- 2------------ 0|------ 0------ 0----------------|
B|---- 4---------- 3------ 2-- 3--|---------------- 0---- 2---- 3--|
G|-------------------- 2----------|-- 0------ 0---------- 0---- 0--|
D|--------------------------------|-------------------- 2-------- 2|
A| 2------ 2------ 2------ 2------|--------------------------------|
E|--------------------------------| 0------ 0------ 0------ 0------|
http://classicalguitartablature.blogspot.com/
E|---- 2--------------------------|-------- 2------ 2---------- 2--|
B| 5------ 3-- 2-- 0--------------|-------- 3----------------------|
G| 3-------------- 2--------------| 4---------- 4------ 4-------- 2|
D|-------- 2---------- 0------ 0--|---- 4--------------------------|
A|---------------- 2------ 2------| 2------ 2------ 2------ 2------|
E| 2------ 2----------------------|--------------------------------|
http://classicalguitartablature.blogspot.com/
E| 3-- 5-- 3-- 2-- 2--------------| 0------ 0------ 0--------------|
B|---- 4---------- 3------ 2-- 3--| 0------ 0-------------- 2-- 3--|
G|-------------------- 2----------| 0-------------------- 0--------|
D|--------------------------------|---- 2------ 2------ 2----------|
A| 2------ 2------ 2------ 2------|--------------------------------|
E|--------------------------------| 0------ 0------ 0------ 0------|
http://classicalguitartablature.blogspot.com/
E|---- 2--------------------------|--------------------------------|
B| 5------ 3-- 2-- 0--------------|--------------------------------|
G| 3------ 3-- 3-- 2--------------|--------------------------------|
D| 2------ 2-- 2-- 0--------------|--------------------------------|
A|---------------- 2--------------|--------------------------------|
E| 2------ 2----------------------|--------------------------------|
http://classicalguitartablature.blogspot.com/

0 ความคิดเห็น:

แสดงความคิดเห็น