To celebrate the anniversary, I am giving you (finally...) : iPhone LickByNeck !!!!!!

Rolling In The Deep (BASIC)

Adele's tune fingerstyle chord melody guitar BASIC arrangement played in the key of Cm.

Rolling In The Deep-Adele-BASIC ARRANGEMENT played in the key of Cm.
http://classicalguitartablature.blogspot.com/
E|--------------------------------|------------------------------ 3|
B|--------------------------------|--------------------------------|
G| 5------ 5------ 5------ 5------| 5------ 5------ 5------ 5------|
D| 5------ 5------ 5--------------| 5------ 5------ 5------ 5------|
A| 3-- 3-- 3-- 3-- 3-- 3-- 3-- 3--| 3-- 3-- 3-- 3-- 3-- 3-- 3-- 3--|
E|--------------------------------|--------------------------------|
http://classicalguitartablature.blogspot.com/
E|---- 3------------------------ 3|-- 3-------------------------- 3|
B| 4-- 4-------- 6-- 4------------|-- 3-- 6-- 4------------------ 3|
G| 5-- 5-------------- 5---- 5-- 3|-- 3-- 3------ 5-------------- 3|
D| 5------ 5---- 5------ 5------ 5|-- 5------ 5------ 5------ 5-- 5|
A| 3-- 3-- 3-- 3 3---- 3 3---- 3 3|--------------------------------|
E|--------------------------------|-- 3-- 3-- 3-- 3-- 3-- 3-- 3-- 3|
http://classicalguitartablature.blogspot.com/
http://classicalguitartablature.blogspot.com/
E|---- 6---- 3--------------------|------------------------------ 3|
B|---- 3---- 3-- 6-- 4---------- 4|-- 4-- 3---------------------- 4|
G|---- 3---- 3-- 3---- 5---- 5----|---------- 5 5---------------- 5|
D|-- 3------ 3-- 3-- 3------ 3-- 3|-- 5------ 5------ 3------ 3-- 5|
A|--------------------------------|------------------------------ 3|
E|-- 6-- 6-- 6---- 6 6-- 6-- 6-- 6|-- 3-- 3-- 3-- 3-- 6-- 6-- 6----|
http://classicalguitartablature.blogspot.com/
E|-- 3------ 3--------------------| 3-- 3------------------------ 3|
B|-- 4------ 4-- 6-- 4------------| 3-- 3-- 6-- 4---------------- 3|
G|-- 5------ 5-------- 5------ 5--| 3-- 3-- 3---- 5-------------- 3|
D|------ 5------ 5-------- 5------| 5-- 5------ 5------ 5---- 5----|
A|---- 3-- 3-- 3-- 3-- 3-- 3-- 3--| 3------------------------------|
E|--------------------------------|---- 3-- 3-- 3-- 3-- 3-- 3-- 3--|
http://classicalguitartablature.blogspot.com/
E|-- 6------ 3--------------------|--------------------------------|
B|-- 3------ 3-- 6-- 4---------- 4|-- 4-- 3------------------------|
G|---- 3---- 3---------- 5-- 5----|---------- 5-- 5----------------|
D|-- 3------ 3------ 3------ 3-- 3|-- 5------ 5------ 3------ 3-- 6|
A|--------------------------------|--------------------------------|
E| 3 6-- 6---- 6-- 6 6---- 6-- 6--| 6-- 3-- 3 3-- 3-- 6-- 6-- 6-- 4|
http://classicalguitartablature.blogspot.com/
E|---------------- 3------ 3------|-------------- 3-------- 3------|
B|---------------- 4------ 4------| 6---- 4-- 4------------------ 6|
G|------------ 5------------------|-- 5----------------------------|
D|--------------------------------| 3---------------------------- 5|
A|--------------------------------|--------------------------------|
E|---- 4-- 4 4---- 4-- 4-- 4-- 4--| 6-- 6-- 6-- 6-- 6-- 6-- 6-- 6--|
http://classicalguitartablature.blogspot.com/
E|-------------- 3------ 3--------|---------------------- 3--------|
B| 4---- 4-- 4------------------ 6|-- 4-- 4-- 4-- 6-- 4------ 4-- 4|
G|-- 5----------------------------|--------------------------------|
D|------------------------------ 6|--------------------------------|
A|--------------------------------|--------------------------------|
E| 3-- 3-- 3-- 3-- 3-- 3-- 3-- 3--| 4-- 4-- 4-- 4-- 4-- 4-- 4-- 4--|
http://classicalguitartablature.blogspot.com/
E|-------------- 3------ 3--------|-------------- 3------ 3--------|
B|-------------- 4------ 4------ 6| 4---- 4-- 4------------------ 6|
G| 5-------- 5--------------------|-- 5----------------------------|
D| 6------------------------------| 3------------------------------|
A|--------------------------------|--------------------------------|
E| 4-- 4-- 4-- 4-- 4-- 4-- 4-- 4--| 6-- 6-- 6-- 6-- 6-- 6-- 6-- 6--|
http://classicalguitartablature.blogspot.com/
E|-------------- 3------ 3--------|---------- 3-- 6-- 3-- 6-- 3-- 8|
B| 4---- 4-- 4------------------ 6|-- 4------------ 3 3-- 3-- 3-- 8|
G|-- 5----------------------------|-------------- 4-- 4-- 4-- 4-- 8|
D| 5------------------------------| 5------------------------------|
A|--------------------------------|--------------------------------|
E| 3-- 3-- 3-- 3-- 3-- 3-- 3-- 3--| 3-- 3-- 3-- 3-- 3-- 3-- 3-- 3 8|
http://classicalguitartablature.blogspot.com/
E|----------------------10---- 6--|-------------- 6------ 6------ 8|
B|---------------------- 8---- 6--|---------- 8------ 8------ 8-- 4|
G|------ 8------ 8------------ 7--|------ 7---------- 7---------- 5|
D|------10------10----------------|------ 8------------------------|
A|--------------------------------|--------------------------------|
E|---- 8-- 8-- 8 8-- 8-- 8--------| 6-- 6 6-- 6-- 6-- 6-- 6-- 6----|
http://classicalguitartablature.blogspot.com/
E|----------------------10-- 6----|-------------- 6------ 6------ 8|
B|-------------------------- 4----|---------- 8-- 6-- 8-- 6-- 8-- 8|
G|------ 5------------------ 5----|-------------- 7-- 7-- 7-- 7-- 8|
D|------ 6------ 6----------------|--------------------------------|
A|--------------------------------|--------------------------------|
E| 4 4-- 4-- 4---- 4 4------ 4-- 4|-- 4-- 4-- 4-- 6-- 6-- 6-- 6-- 8|
http://classicalguitartablature.blogspot.com/
E|----------------------10-- 6----|---------------------------- 4--|
B|---------------------- 8-- 6----|------------------ 8-- 8---- 1--|
G|------ 8------ 8---------- 7----|------ 7------ 7------------ 1--|
D|------10------10----------------|------ 8------ 8----------------|
A|--------------------------------|--------------------------------|
E|---- 8-- 8-- 8 8-- 8-- 8--------| 6-- 6-- 6 6-- 6-- 6-- 6------ 4|
http://classicalguitartablature.blogspot.com/
E|-- 4-------------- 3-- 3-- 4----|-- 4------ 3-- 6------ 6------ 8|
B|-- 1-------------- 1-- 1-- 1----|-- 1------ 1-- 6-- 8-- 6-- 8-- 8|
G|--------------------------------|-------------- 7-- 7-- 7-- 7-- 8|
D|--------------------------------|--------------------------------|
A|--------------------------------|--------------------------------|
E|---- 4 4-- 4---- 4 4-- 4---- 4 4|-- 4---- 4-- 4 6-- 6-- 6-- 6-- 8|
http://classicalguitartablature.blogspot.com/
E|----------------------10---- 6--|-------------- 6------ 6------ 8|
B|---------------------- 8---- 6--|---------- 8------ 8------ 8-- 4|
G|------ 8------ 8------------ 7--|------ 7---------- 7---------- 5|
D|------10------10----------------|------ 8------------------------|
A|--------------------------------|--------------------------------|
E|---- 8-- 8-- 8 8-- 8-- 8--------| 6-- 6 6-- 6-- 6-- 6-- 6-- 6----|
http://classicalguitartablature.blogspot.com/
E|----------------------10-- 6----|-------------- 6------ 6------ 8|
B|-------------------------- 4----|---------- 8-- 6-- 8-- 6-- 8-- 8|
G|------ 5------------------ 5----|-------------- 7-- 7-- 7-- 7-- 8|
D|------ 6------ 6----------------|--------------------------------|
A|--------------------------------|--------------------------------|
E| 4 4-- 4-- 4---- 4 4------ 4-- 4|-- 4-- 4-- 4-- 6-- 6-- 6-- 6-- 8|
http://classicalguitartablature.blogspot.com/
E|----------------------10-- 6----|---------------------------- 4--|
B|---------------------- 8-- 6----|------------------ 8-- 8---- 1--|
G|------ 8------ 8---------- 7----|------ 7------ 7------------ 1--|
D|------10------10----------------|------ 8------ 8----------------|
A|--------------------------------|--------------------------------|
E|---- 8-- 8-- 8 8-- 8-- 8--------| 6-- 6-- 6 6-- 6-- 6-- 6--------|
http://classicalguitartablature.blogspot.com/
E|---- 4 3---- 4------ 4-- 3-- 4--|-- 4---- 3-- 4---- 4-- 3-- 1----|
B|---- 1 1---- 1------ 1-- 1-- 1--|---- 1-- 1-- 1---- 1-- 1--------|
G|---- 1 1---- 1------ 1-- 1-- 1--|---- 1------ 1---- 1-- 1--------|
D|--------------------------------|--------------------------------|
A|--------------------------------|--------------------------------|
E| 4-- 4-- 4-- 4-- 4-- 4-- 4-- 4--| 4-- 4-- 4-- 4-- 4-- 4-- 4-- 4--|
http://classicalguitartablature.blogspot.com/
E|--------------------------------|--------------------------------|
B| 6 4----------------------------|--------------------------------|
G| 3---------- 5------------------|--------------------------------|
D| 5------------------------------|--------------------------------|
A| 3------------------------------|--------------------------------|
E|--------------------------------|--------------------------------|
http://classicalguitartablature.blogspot.com/

0 ความคิดเห็น:

แสดงความคิดเห็น