To celebrate the anniversary, I am giving you (finally...) : iPhone LickByNeck !!!!!!

Rosanna (BASIC)

Toto's tune fingerstyle chord melody guitar BASIC arrangement played in the key of G.

Rosanna-Toto-BASIC Arrangement played in the key of G.
http://classicalguitartablature.blogspot.com/
E|--------------------------------|--------------------------------|
B|--------------------------------|--------------------------------|
G| 0------------------------------|---------------- 0-- 0------ 0 0|
D| 0------------------------------|------------------------------ 0|
A|--------------------------------|--------------------------------|
E| 3---------- 3---------- 3------|---- 3---------------- 3--------|
http://classicalguitartablature.blogspot.com/
E|--------------------------------|--------------------------------|
B|--------------------------------|--------------------------------|
G|--------------------------------|-------------- 0---- 0---- 0----|
D|--------------------------------|--------------------------------|
A|--------------------------------|--------------------------------|
E| 3---------- 3---------- 3------|------ 3-------------- 3--------|
http://classicalguitartablature.blogspot.com/
http://classicalguitartablature.blogspot.com/
E|--------------------------------|--------------------------------|
B|--------------------------------|--------------------------------|
G| 0------ 0------ 0------ 0-- 0--|---- 0-- 0------ 0---- 0--------|
D| 0------ 0------ 0------ 0-- 0--|---- 0-- 0------ 0---- 0--------|
A|--------------------------------|--------------------------------|
E| 3------------------------------| 3------------------------------|
http://classicalguitartablature.blogspot.com/
E|--------------------------------|--------------------------------|
B|-------- 0-- 0------------------|---------------------- 3------ 1|
G| 2---- 0---------------- 0------|-------------- 0-------------- 0|
D| 0------------------ 0----------|------ 0---------------------- 0|
A|--------------------------------|--------------------------------|
E| 3------------------------------| 3---------------------------- 3|
http://classicalguitartablature.blogspot.com/
E|--------------------------------|--------------------------------|
B|------------ 0-------- 3--------| 1---------- 0------------------|
G|---------- 0--------------------| 0---------- 0-------- 0--------|
D|--------------------------------| 0-------- 0-------- 0----------|
A|--------------------------------|--------------------------------|
E|--------------------------------| 3------------------------------|
http://classicalguitartablature.blogspot.com/
E|--------------------------------|--------------------------------|
B|--------------------------------|--------------------------------|
G|------ 2------ 2-------- 0-- 2 3|---- 2------ 2------ 0 2---- 0--|
D|------ 3------ 3-------- 3-- 3--|---- 3------ 3------ 3----------|
A|--------------------------------|--------------------------------|
E| 1------------------------------| 1------------------------------|
http://classicalguitartablature.blogspot.com/
E|--------------------------------|--------------------------------|
B|--------------------------------|--------------------------------|
G| 3-- 2------ 2------------------|-------------- 0------ 0--------|
D| 2-- 2------ 2------ 0 2--------|-------- 2----------------------|
A|--------------------------------|--------------------------------|
E| 0------------------------------| 0------------------------------|
http://classicalguitartablature.blogspot.com/
E|--------------------------------|--------------------------------|
B|------ 0------ 1 0--------------|--------------------------------|
G| 2------------------------------|---------------- 0-- 0------ 0--|
D|--------------------------------|---- 0--------------------------|
A|--------------------------------|--------------------------------|
E| 3---------------------- 3------|------------------------ 3------|
http://classicalguitartablature.blogspot.com/
E|--------------------------------|--------------------------------|
B|--------------------------------|-------------- 1------ 1--------|
G|------------ 0------------------|------ 0------ 0------ 0--------|
D|------------ 0------------------|---- 0-------- 2------ 2--------|
A|--------------------------------|---------------- 3------ 3------|
E| 3------------ 3-------- 3------|--------------------------------|
http://classicalguitartablature.blogspot.com/
E| 1------ 1------ 1------ 1-- 1--|-------- 1------ 1------ 1------|
B| 1------ 1------ 1------ 1-- 1--|---- 1-- 1------ 1------ 1------|
G| 2------ 2------ 2------ 2-- 2--|---- 2---------- 2------ 2------|
D|--------------------------------|--------------------------------|
A|--------------------------------|--------------------------------|
E| 1------------------------------| 1------------------------------|
http://classicalguitartablature.blogspot.com/
E|-------- 5-- 5------------------|---------------------- 8--------|
B| 8------ 8-- 8------------------|------------------------------11|
G| 5------ 5-- 5---------- 5------|---------------- 5--------------|
D| 7------------------ 7----------|------ 7------------------------|
A| 8------------------------------| 8------------------------------|
E|--------------------------------|--------------------------------|
http://classicalguitartablature.blogspot.com/
E|---------------------- 8--------|--------------------------------|
B|------------10------------------|11----------10------------------|
G|10----------10------------------|10----------10----------10------|
D|10----------10------------------|10----------10------10----------|
A| 8------------------------------| 8------------------------------|
E|--------------------------------|--------------------------------|
http://classicalguitartablature.blogspot.com/
E|-------- 3---- 3---------- 3----|-------------- 5------ 3--------|
B|-------- 6------ 6------ 6-- 6--|-------- 6----------------------|
G|-------- 3------ 3---- 3---- 3--|-------- 3----------------------|
D|---------------------- 5--------|--------------------------------|
A| 6------------------------------| 6------------------------------|
E|--------------------------------|--------------------------------|
http://classicalguitartablature.blogspot.com/
E|------------------------ 5------|--------------------------------|
B| 8---- 6------ 8---- 6-- 6------|---- 8---- 6--------------------|
G| 5---- 5------ 5---- 5-- 5------|------ 5-- 5------------ 5------|
D| 7---- 7------ 7---- 7----------|------ 7-------- 7--------------|
A| 5---------------------------- 5|--------------------------------|
E|--------------------------------|--------------------------------|
http://classicalguitartablature.blogspot.com/
E|--------------------------------|--------------------------------|
B| 3------------------------------|--------------------------------|
G| 3-------------- 3------ 3------| 3-------------- 3--------------|
D| 5-------------- 5------ 5------| 5-------------- 5------ 5------|
A|--------------------------------|--------------------------------|
E| 3------ 3------ 3------ 3------| 3------ 3------ 3------ 3------|
http://classicalguitartablature.blogspot.com/
E|--------------------------------|--------------------------------|
B|-------- 3-- 3------------------|------------------------ 4-- 4--|
G| 5---------- 3------------------|------------------------ 3-- 3--|
D| 3---------- 3------------------|------------------------ 3-- 3--|
A|--------------------------------|--------------------------------|
E| 5------ 5------ 6------ 6------| 6------ 6------ 6------ 6------|
http://classicalguitartablature.blogspot.com/
E|--------------------------------|--------------------------------|
B|------ 3---- 3-------------- 1--|--------------------------------|
G|------ 3---- 3---------- 5-- 2--|--------------------------------|
D|------ 3---- 3-------------- 3--|--------------------------------|
A|--------------------------------|--------------------------------|
E| 6---- 6-------- 6------ 6------| 1------ 1------ 1------ 1------|
http://classicalguitartablature.blogspot.com/
E|--------------------------------|--------------------------------|
B| 3------------------------------|--------------------------------|
G| 3-------------- 3------ 3------| 3-------------- 3------ 3------|
D| 5-------------- 5------ 5------| 5-------------- 5------ 5------|
A|--------------------------------|--------------------------------|
E| 3------ 3------ 3------ 3------| 3------ 3------ 3------ 3------|
http://classicalguitartablature.blogspot.com/
E|--------------------------------|--------------------------------|
B|-------- 3-- 3------------------|------------------------ 4-- 4--|
G| 5------------------------------|------------------------ 3-- 3--|
D| 3------------------------------|------------------------ 5-- 5--|
A|--------------------------------|------------------------ 6---- 6|
E|-- 5---- 5------ 6------ 6------| 6------ 6------ 6--------------|
http://classicalguitartablature.blogspot.com/
E|--------------------------------|-------------- 1------ 4 1------|
B|-------- 3-- 3---------- 1-- 1--|---------- 1 3-------------- 3--|
G|-------- 3-- 3---------- 2-- 2--|---- 1 2------------------------|
D|-------- 3-- 3---------- 3-- 3--|--------------------------------|
A|--------------------------------|--------------------------------|
E|-------- 6-- 6---------- 1-- 1--|--------------------------------|
http://classicalguitartablature.blogspot.com/
E|---- 1--------------------------|--------------------------------|
B|---- 1---------- 1------ 3------| 3------ 4---- 4------------ 3--|
G|---- 2--------------------------| 3------ 3---- 3------------ 3--|
D|--------------------------------| 3------ 5---- 5------------ 3--|
A|--------------------------------| 1------ 3---- 3------ 3---- 3--|
E|---- 1--------------------------|--------------------------------|
http://classicalguitartablature.blogspot.com/
E|--------------------------------|--------------------------------|
B| 3-- 4------------------ 4-- 4--|-------- 3-- 3-------- 1---- 1--|
G| 3-- 3------------------ 3-- 3--|-------- 3-- 3---------- 2-- 2--|
D| 5-- 5------------------ 5-- 5--|-------- 3-- 3---------- 3-- 3--|
A| 3---- 3------ 3-------- 6-- 6--|--------------------------------|
E|--------------------------------|-------- 6-- 6---------- 1-- 1--|
http://classicalguitartablature.blogspot.com/
E|--------------------------------|--------------------------------|
B|-------------- 1-------- 3---- 3|-------- 4-- 4-------------- 3--|
G|---------------- 2------ 3---- 3|-------- 3-- 3-------------- 3--|
D|---------------- 3------ 5---- 3|-------- 5-- 5-------------- 3--|
A|--------------------------------| 1------ 3-- 3-------- 3------ 3|
E|------ 1-------- 1------ 3------|--------------------------------|
http://classicalguitartablature.blogspot.com/
E|--------------------------------|--------------------------------|
B| 4-- 4------------------ 4-- 4--|-------- 3-- 3-------- 1---- 1--|
G| 3-- 3---------- 3------ 3-- 3--|-------- 3-- 3-------- 2---- 2--|
D| 5-- 5------------ 5---- 5-- 5--|-------- 3-- 3-------- 3---- 3--|
A| 3---- 3------ 3-------- 6-- 6--|--------------------------------|
E|--------------------------------|-------- 6-- 6---------- 1-- 1--|
http://classicalguitartablature.blogspot.com/
E|--------------------------------|--------------------------------|
B|---------------- 1------ 3------| 3------ 4-- 4-------------- 3--|
G|---------------- 2------ 3------| 3---------- 3-------------- 3--|
D|---------------- 3------ 5------| 3---------- 5-------------- 3--|
A|--------------------------------| 1------ 3-- 3------ 3------ 3--|
E|---- 1---------- 1------ 3------|--------------------------------|
http://classicalguitartablature.blogspot.com/
E|--------------------------------|--------------------------------|
B| 4-- 4------------------ 4-- 4--|-------- 3-- 3-------- 1---- 1--|
G| 3-- 3------------------ 3-- 3--|-------- 3-- 3-------- 2---- 2--|
D| 5-- 5------------------ 5-- 5--|-------- 3-- 3---------- 3-- 3--|
A| 3-- 3-------- 3-------- 6-- 6--|--------------------------------|
E|--------------------------------|-------- 6-- 6---------- 1-- 1--|
http://classicalguitartablature.blogspot.com/
E|--------------------------------|--------------------------------|
B|---------------- 1------ 3------| 3------ 4-- 4-------------- 3--|
G|---------------- 2------ 3------| 3---------- 3-------------- 3--|
D|---------------- 3------ 5------| 3------ 5-- 5-------------- 3--|
A|--------------------------------| 1------ 3---- 3------ 3---- 3--|
E|---- 1---------- 1------ 3------|--------------------------------|
http://classicalguitartablature.blogspot.com/
E|--------------------------------|--------------------------------|
B| 4-- 4------------------ 4-- 4--|-------- 3-- 3---------- 1-- 1--|
G| 3-- 3------------------ 3-- 3--|-------- 3-- 3---------- 2-- 2--|
D| 5-- 5------------------ 5-- 5--|-------- 3-- 3---------- 3-- 3--|
A| 3-- 3-------- 3-------- 6-- 6--|--------------------------------|
E|--------------------------------|-------- 6---- 6-------- 1---- 1|
http://classicalguitartablature.blogspot.com/
E|--------------------------------|--------------------------------|
B|--------------------------------|--------------------------------|
G|--------------------------------|--------------------------------|
D|--------------------------------|--------------------------------|
A|--------------------------------|--------------------------------|
E|--------------------------------|--------------------------------|
http://classicalguitartablature.blogspot.com/

0 ความคิดเห็น:

แสดงความคิดเห็น