To celebrate the anniversary, I am giving you (finally...) : iPhone LickByNeck !!!!!!

Shape Of My Heart (BASIC)

Sting's tune fingerstyle chord melody guitar BASIC arrangement played in the key of F#m.

Shape Of My Heart-Sting-BASIC Arrangement played in the key of A
http://classicalguitartablature.blogspot.com/
E|------------------------------ 2|-------- 2----------------------|
B|10--10----10---- 9------ 9------|------ 0---- 0-- 7------ 6------|
G|---------------------- 6-- 6----|---- 2---------- 4-- 4-- 4-- 4--|
D|------11---------- 9------------|---------------- 6------ 6------|
A| 9-------------- 7--------------| 2-------------- 4--------------|
E|--------------------------------|--------------------------------|
http://classicalguitartablature.blogspot.com/
E|--------------------------------| 2-------- 2--------------------|
B|10--------10---- 9-------- 9----| 0---- 0---- 0-- 7------ 6------|
G|------ 7-------------- 6---- 6--|---- 2---------- 4-- 4------ 4--|
D|----11-------------- 9----------|---------------- 6--------------|
A| 9-------------- 7--------------| 2-------------- 4--------------|
E|--------------------------------|--------------------------------|
http://classicalguitartablature.blogspot.com/
http://classicalguitartablature.blogspot.com/
E|-------------- 5----------------|--------------------------------|
B|------ 7------------ 7----------|------------------------ 6------|
G| 4---------------------- 4------| 2---- 2---------------- 4------|
D|---- 7---- 7------ 7------------| 2---- 2---- 2------ 6-- 6------|
A| 5------------------------------| 0-------------- 4--------------|
E|--------------------------------|--------------------------------|
http://classicalguitartablature.blogspot.com/
E|--------------------------------| 2---------------------------- 5|
B| 7---- 7-------- 7--------------| 2---------------------------- 2|
G| 4---- 4-------- 4--------------| 2---------------------------- 2|
D| 7---- 7-------- 6--------------|--------------------------------|
A| 5------------------------------|--------------------------------|
E|-------------- 4----------------| 2------------------------------|
http://classicalguitartablature.blogspot.com/
E|---------- 2 5 2----------------|-------- 7-- 5---- 4------------|
B|------ 2--------10-------- 7-- 9|10--------10-- 7------ 6--------|
G|---------------- 6---- 6--------| 7-- 7-------- 4------ 4---- 4--|
D|-------------------- 9----------|---- 7--------------------------|
A|---------------- 7--------------|---------------- 4--------------|
E| 2------------------------------| 7------------------------------|
http://classicalguitartablature.blogspot.com/
E|------------------------ 7---- 2|---------- 2--------------------|
B|---------- 7 7--10--------10----|------ 0---- 0-- 7------ 6------|
G|------ 7-------- 6---- 6--------|---- 2---------- 4-- 4------ 4--|
D|----11-------------- 9----------|---------------- 6--------------|
A| 9-------------- 7--------------| 2-------------- 4------ 4------|
E|--------------------------------|--------------------------------|
http://classicalguitartablature.blogspot.com/
E|------------ 5-- 5---------- 0--| 9----10-- 9 9------------------|
B|------ 7-- 7 7------------ 7----|10----10--10-- 9----12----------|
G| 4-------------------- 4--------|---- 9------10----------10------|
D|---- 7-------------- 7----------|-------------------- 9----------|
A| 5-------------- 5--------------| 0------------------------------|
E|--------------------------------|---------------- 9--------------|
http://classicalguitartablature.blogspot.com/
E| 5---- 5---- 5-- 9---- 7---- 7--| 5 2----------------------------|
B| 7---- 7---- 7-- 7---- 7---- 7--| 2----------------------------10|
G| 4---- 4-------- 4---------- 4--| 2------------------------------|
D|-------------------- 6----------|--------------------------------|
A| 5------------------------------|------------------------------ 9|
E|---------------- 4--------------| 2------------------------------|
http://classicalguitartablature.blogspot.com/
E|------------ 9-- 9------------ 7| 9------10 9-- 9----------------|
B|------10--12-------------- 910--| 7------------12--12------------|
G|---------------------- 6--------| 7---- 7------11--11----10------|
D|----11-------------- 9----------|---- 7---------------- 9---- 9--|
A|--------------------------------|--------------------------------|
E|---------------- 0--------------| 7-------------- 9------ 9------|
http://classicalguitartablature.blogspot.com/
E|---------- 7 9-- 9---- 9--10 9--| 7------------------------------|
B|10----10-------- 9------ 9------| 7-------- 7---- 7------ 6------|
G| 7-- 7---------- 6------ 6------|------ 4---- 4-- 4-- 4------ 4--|
D|11------------------ 9----------|---- 7---------- 6--------------|
A| 9------------------------------|---------------- 4------ 4------|
E|---------------- 0--------------| 7------------------------------|
http://classicalguitartablature.blogspot.com/
E|------------ 5-- 5---------- 0--| 9----10-- 9 9------------------|
B|------ 7-- 7 7------------ 7----|10----10--10-- 9----12----------|
G| 4-------------------- 4--------|---- 9------10----------10------|
D|---- 7-------------- 7----------|-------------------- 9----------|
A| 5-------------- 5--------------| 0------------------------------|
E|--------------------------------|---------------- 9--------------|
http://classicalguitartablature.blogspot.com/
E| 5---- 5---- 5-- 9---- 7---- 7--| 5------------------------------|
B| 7---- 7---- 7-- 7---- 7---- 7--| 2-------- 2-------------- 2----|
G| 4---- 4-------- 4---------- 4--|------ 2---- 2-------- 2---- 2--|
D|-------------------- 6----------|---- 2-------------- 2----------|
A| 5------------------------------|--------------------------------|
E|---------------- 4--------------| 2-------------- 0--------------|
http://classicalguitartablature.blogspot.com/
E| 9---- 7---- 5-- 9---- 7--------|---------------- 9---- 7---- 5--|
B| 7---- 7-------- 7---- 7------ 7|---------- 7---- 7---- 7--------|
G|---- 6---- 6---- 4---------- 4--|------ 4---- 4------------------|
D|-------------------- 6---- 6----|---- 6-------------- 6----------|
A| 5------------------------------|--------------------------------|
E|---------------- 4--------------| 4-------------- 4--------------|
http://classicalguitartablature.blogspot.com/
E| 9------------------------------|--------------------------------|
B| 9-------------- 4------ 4------| 2-------- 2---- 2------ 1------|
G| 9-------- 9---- 1---- 1-- 1-- 2|---------------- 1------ 1------|
D|------ 6------------ 4----------|---- 4-------------- 4------ 4--|
A|---------------- 2--------------|--------------------------------|
E| 9------------------------------| 2-------------- 4------ 4------|
http://classicalguitartablature.blogspot.com/
E|--------------------------------|--------------------------------|
B| 5------ 5------ 4------ 4------| 2-------- 2---- 2------ 1------|
G|------ 2---- 2-------- 1---- 1--|---------------- 1------ 1------|
D|---- 6-------------- 4----------|------ 4------------ 4------ 4--|
A| 4-------------- 2--------------|--------------------------------|
E|--------------------------------| 2-------------- 4------ 4------|
http://classicalguitartablature.blogspot.com/
E|-------------- 0----------------| 4---- 4---- 4------------------|
B|------ 2------------ 2----------| 5---- 5---- 5-- 2------ 1------|
G|--------------------------------| 4---- 4---- 4-- 1------ 1------|
D|---- 4---- 4------ 4---- 4------|---------------- 4------ 4------|
A| 0------------------------------|--------------------------------|
E|--------------------------------| 0-------------- 4------ 4------|
http://classicalguitartablature.blogspot.com/
E| 9---- 7---- 5-- 4---------- 0--|--------------------------------|
B| 5---- 5---- 5-- 4---- 7--------| 2-------- 2-------------- 2----|
G|---- 6---- 6---- 6---- 6--------| 4---- 4-------------- 4---- 4--|
D|-------------------- 4-- 4------|---- 2------ 2------ 2----------|
A| 0-------------- 6--------------| 4-------------- 2--------------|
E|--------------------------------|--------------------------------|
http://classicalguitartablature.blogspot.com/
E| 9---- 7---- 5-- 4---------- 0--|------------------------------ 5|
B| 5---- 5---- 5-- 4---- 7--------| 2-------- 2---- 2------------ 2|
G|---- 6---- 6---- 6---- 6--------| 1---- 1---- 1---------------- 2|
D|-------------------- 4-- 4------|---- 2-------- 2----------------|
A| 0-------------- 6--------------| 0------------------------------|
E|--------------------------------|--------------------------------|
http://classicalguitartablature.blogspot.com/
E|---------- 2 5 2----------------|-------- 7-- 5---- 4------------|
B|------ 2--------10-------- 7-- 9|10--------10-- 7------ 6--------|
G|---------------- 6---- 6--------| 7-- 7-------- 4------ 4---- 4--|
D|-------------------- 9----------|---- 7--------------------------|
A|---------------- 7--------------|---------------- 4--------------|
E| 2------------------------------| 7------------------------------|
http://classicalguitartablature.blogspot.com/
E|------------------------ 7---- 2|---------- 2--------------------|
B|---------- 7 7--10--------10----|------ 0---- 0-- 7------ 6------|
G|------ 7-------- 6---- 6--------|---- 2---------- 4-- 4------ 4--|
D|----11-------------- 9----------|---------------- 6--------------|
A| 9-------------- 7--------------| 2-------------- 4------ 4------|
E|--------------------------------|--------------------------------|
http://classicalguitartablature.blogspot.com/
E|------------ 5-- 5---------- 0--| 9----10-- 9 9------------------|
B|------ 7-- 7 7------------ 7----|10----10--10-- 9----12----------|
G| 4-------------------- 4--------|---- 9------10----------10------|
D|---- 7-------------- 7----------|-------------------- 9----------|
A| 5-------------- 5--------------| 0------------------------------|
E|--------------------------------|---------------- 9--------------|
http://classicalguitartablature.blogspot.com/
E| 5---- 5---- 5-- 9---- 7---- 7--| 5 2----------------------------|
B| 7---- 7---- 7-- 7---- 7---- 7--| 2----------------------------10|
G| 4---- 4-------- 4---------- 4--| 2------------------------------|
D|-------------------- 6----------|--------------------------------|
A| 5------------------------------|------------------------------ 9|
E|---------------- 4--------------| 2------------------------------|
http://classicalguitartablature.blogspot.com/
E|------------ 9-- 9------------ 7| 9------10 9-- 9----------------|
B|------10--12-------------- 910--| 7------------12--12------------|
G|---------------------- 6--------| 7---- 7------11--11----10------|
D|----11-------------- 9----------|---- 7---------------- 9---- 9--|
A|--------------------------------|--------------------------------|
E|---------------- 0--------------| 7-------------- 9------ 9------|
http://classicalguitartablature.blogspot.com/
E|---------- 7 9-- 9---- 9--10 9--| 7------------------------------|
B|10----10-------- 9------ 9------| 7-------- 7---- 7------ 6------|
G| 7-- 7---------- 6------ 6------|------ 4---- 4-- 4-- 4------ 4--|
D|11------------------ 9----------|---- 7---------- 6--------------|
A| 9------------------------------|---------------- 4------ 4------|
E|---------------- 0--------------| 7------------------------------|
http://classicalguitartablature.blogspot.com/
E|------------ 5-- 5---------- 0--| 9----10-- 9 9------------------|
B|------ 7-- 7 7------------ 7----|10----10--10-- 9----12----------|
G| 4-------------------- 4--------|---- 9------10----------10------|
D|---- 7-------------- 7----------|-------------------- 9----------|
A| 5-------------- 5--------------| 0------------------------------|
E|--------------------------------|---------------- 9--------------|
http://classicalguitartablature.blogspot.com/
E| 5---- 5---- 5-- 9---- 7---- 7--| 5------------------------------|
B| 7---- 7---- 7-- 7---- 7---- 7--| 2-------- 2-------------- 2----|
G| 4---- 4-------- 4---------- 4--|------ 2---- 2-------- 2---- 2--|
D|-------------------- 6----------|---- 2-------------- 2----------|
A| 5------------------------------|--------------------------------|
E|---------------- 4--------------| 2-------------- 0--------------|
http://classicalguitartablature.blogspot.com/
E| 9---- 7---- 5-- 9---- 7---- 7--| 5------------------------------|
B| 7---- 7-------- 7---- 7---- 7--| 2-------- 2-------------- 2----|
G|---- 6---- 6---- 4---------- 4--|------ 2---- 2-------- 2---- 2--|
D|-------------------- 6----------|---- 2-------------- 2----------|
A| 5------------------------------|--------------------------------|
E|---------------- 4--------------| 2-------------- 0--------------|
http://classicalguitartablature.blogspot.com/
E| 9---- 7---- 5-- 9--------------|---------------- 9---- 7---- 7--|
B| 7---- 7-------- 7-------- 7----|-------- 7------ 7---- 7---- 7--|
G|---- 6---- 6---- 4---- 4---- 4--|------ 4---- 4-- 4---------- 4--|
D|-------------------- 6----------|---- 6--------------------------|
A| 5------------------------------|--------------------------------|
E|---------------- 4--------------| 4-------------- 4--------------|
http://classicalguitartablature.blogspot.com/
E| 5 2-------- 5---------------- 2|-------- 2----------------------|
B| 2---- 2-------- 9-------- 9----|------ 0---- 0-- 7------ 6------|
G| 2-------------------- 6---- 6--|---- 2---------- 4-- 4-- 4-- 4--|
D|-------------------- 9----------|---------------- 6------ 6------|
A|---------------- 7--------------| 2-------------- 4--------------|
E| 2------------------------------|--------------------------------|
http://classicalguitartablature.blogspot.com/
E|--------------------------------| 2-------- 2--------------------|
B|10--------10---- 9-------- 9----| 0---- 0---- 0-- 7------ 6------|
G|------ 7-------------- 6---- 6--|---- 2---------- 4-- 4------ 4--|
D|----11-------------- 9----------|---------------- 6--------------|
A| 9-------------- 7--------------| 2-------------- 4--------------|
E|--------------------------------|--------------------------------|
http://classicalguitartablature.blogspot.com/
E|-------------- 5----------------|--------------------------------|
B|------ 7------------ 7----------|------------------------ 6------|
G| 4---------------------- 4------| 2---- 2---------------- 4------|
D|---- 7---- 7------ 7------------| 2---- 2---- 2------ 6-- 6------|
A| 5------------------------------| 0-------------- 4--------------|
E|--------------------------------|--------------------------------|
http://classicalguitartablature.blogspot.com/
E|--------------------------------| 2------------------------------|
B| 7---- 7-------- 7--------------| 2------------------------------|
G| 4---- 4-------- 4--------------| 2------------------------------|
D| 7---- 7-------- 6--------------|--------------------------------|
A| 5------------------------------|--------------------------------|
E|-------------- 4----------------| 2------------------------------|
http://classicalguitartablature.blogspot.com/

0 ความคิดเห็น:

แสดงความคิดเห็น