To celebrate the anniversary, I am giving you (finally...) : iPhone LickByNeck !!!!!!

Stand By Your Man (BASIC)

Tammy Wynette's tune fingerstyle chord melody guitar BASIC arrangement played in the key of A.

Stand By Your Man-Tammy Wynette-BASIC Arrangement played in the key of A.
http://classicalguitartablature.blogspot.com/
E|--------------------------------|--------------------------------|
B|------ 2---- 2------ 2-- 2------| 3------------------ 3-- 3------|
G|------ 2---- 2------ 2-- 2------| 2------ 2-- 2------ 2-- 2------|
D|-------- 2-- 2------ 2-- 2------| 4------ 4-- 4------ 4-- 4------|
A| 0-------------- 0--------------| 5-------------- 5--------------|
E|--------------------------------|--------------------------------|
http://classicalguitartablature.blogspot.com/
E|--------------------------------|--------------------------------|
B| 5---- 5---- 5------ 5-------- 3|--------------------------------|
G| 4---- 4---- 4------ 4-------- 4|--------------------------------|
D| 6---- 6---- 6---------------- 4|--------------------------------|
A| 7------------ 7-------- 4---- 2|--------------------------------|
E|--------------------------------|------------ 0 2-------- 4------|
http://classicalguitartablature.blogspot.com/
http://classicalguitartablature.blogspot.com/
E|--------------------------------|--------------------------------|
B|------ 2---------------------- 2|------------ 2------ 2----------|
G|------------ 2-- 2------ 2-- 2--|------ 2------------------ 4 2 1|
D|---- 2-------------- 2----------|---- 2--------------------------|
A|--------------------------------|--------------------------------|
E| 5-------------- 0--------------| 5-------------- 0--------------|
http://classicalguitartablature.blogspot.com/
E|--------------------------------|--------------------------------|
B|---- 0--------------------------|--------------------------------|
G|------------ 1---------- 1------|-------- 1----------------------|
D|-------- 2---------- 2------ 2--|---- 2------ 0------------------|
A|---------------- 2--------------|---------------- 7-- 6----------|
E| 0------------------------------| 0---------------------- 0-- 1--|
http://classicalguitartablature.blogspot.com/
E|--------------------------------|--------------------------------|
B|------ 0-- 0 0-------------- 2--| 3---------- 3------ 0----------|
G|---- 2 2-- 2 2-------- 2--------| 1------ 1------------------ 2--|
D|---- 0------ 0------ 0----------| 2-- 2--------------------------|
A|--------------------------------|--------------------------------|
E| 2-------------- 2--------------| 0-------------- 0--------------|
http://classicalguitartablature.blogspot.com/
E|--------------------------------|--------------------------------|
B| 2-- 2--------------------------|--------------------------------|
G| 2-- 2------------------ 2------|-------- 2----------------------|
D|------------ 2------ 2------ 2--|---- 2------ 2------------------|
A| 0------------------------------| 0-------------- 2------ 4------|
E|---------------- 0--------------|--------------------------------|
http://classicalguitartablature.blogspot.com/
E|---------------- 5-- 5------ 4--|--------------------------------|
B|-------- 7------ 7-- 7------ 7--|---- 7--------------------------|
G|-------- 7----------------------|---- 7------ 7------------------|
D|---- 7------ 7------------------|--------------------------------|
A| 5-------------- 0--------------| 5-------------- 4------ 2------|
E|--------------------------------|--------------------------------|
http://classicalguitartablature.blogspot.com/
E|------------ 0------ 0-- 0------|--------------------------------|
B|-------- 2-- 2------ 2-- 2------| 3-- 2------ 2------------------|
G|-------- 2---------- 2-- 2------| 2-- 2------ 2------ 2------ 0--|
D|---- 2--------------------------| 2-- 2------ 2-------------- 2--|
A| 0------------------------------| 0-------------- 0------ 1------|
E|---------------- 0--------------|--------------------------------|
http://classicalguitartablature.blogspot.com/
E|--------------------------------|--------------------------------|
B|---------- 0 0 0------------ 0 2|---- 0-------------- 0---- 0----|
G|------ 2-- 2 2 2------ 2------ 2|---- 2-------------- 2---- 2-- 1|
D|---- 1------ 1 1---- 1-------- 1|---- 1---- 1--------------------|
A| 2------------------------------| 2------------------------------|
E|---------------- 2--------------|-------------- 2-------------- 0|
http://classicalguitartablature.blogspot.com/
E|--------------------------------|--------------------------------|
B|------ 0------------------------|--------------------------------|
G|------------ 1---------- 1------|-------- 1----------------------|
D|---- 2-------- 0---- 2-------- 2|------ 2---- 2------------------|
A|---------------- 2--------------|--------------------------------|
E|--------------------------------| 0-------------- 2------ 4------|
http://classicalguitartablature.blogspot.com/
E|--------------------------------|--------------------------------|
B|------ 2---------------------- 2|------------ 2------ 2----------|
G|------------ 2-- 2------ 2-- 2--|------ 2------------------ 4 2 1|
D|---- 2-------------- 2----------|---- 2--------------------------|
A|--------------------------------|--------------------------------|
E| 5-------------- 0--------------| 5-------------- 0--------------|
http://classicalguitartablature.blogspot.com/
E|--------------------------------|--------------------------------|
B|---- 0--------------------------|--------------------------------|
G|------------ 1---------- 1------|-------- 1----------------------|
D|-------- 2---------- 2------ 2--|---- 2------ 0------------------|
A|---------------- 2--------------|---------------- 7-- 6----------|
E| 0------------------------------| 0---------------------- 0-- 1--|
http://classicalguitartablature.blogspot.com/
E|--------------------------------|--------------------------------|
B|------ 0-- 0 0-------------- 2--| 3---------- 3------ 0----------|
G|---- 2 2-- 2 2-------- 2--------| 1------ 1------------------ 2--|
D|---- 0------ 0------ 0----------| 2-- 2--------------------------|
A|--------------------------------|--------------------------------|
E| 2-------------- 2--------------| 0-------------- 0--------------|
http://classicalguitartablature.blogspot.com/
E|--------------------------------|--------------------------------|
B| 2-- 2--------------------------|--------------------------------|
G| 2-- 2------------------ 2------|-------- 2----------------------|
D|------------ 2------ 2------ 2--|---- 2------ 2------------------|
A| 0------------------------------| 0-------------- 2------ 4------|
E|---------------- 0--------------|--------------------------------|
http://classicalguitartablature.blogspot.com/
E|---------------- 5-- 5------ 4--|--------------------------------|
B|-------- 7------ 7-- 7------ 7--|---- 7--------------------------|
G|-------- 7----------------------|---- 7------ 7------------------|
D|---- 7------ 7------------------|--------------------------------|
A| 5-------------- 0--------------| 5-------------- 4------ 2------|
E|--------------------------------|--------------------------------|
http://classicalguitartablature.blogspot.com/
E|---------------------------- 0--|--------------------------------|
B|-------- 5---------- 5------ 3--|---- 3--------------------------|
G|-------- 2---------- 2------ 2--|---- 2--------------------------|
D|---- 2------ 2------ 2----------|---- 4------ 4------------------|
A| 0-------------- 2------ 4------| 5-------------- 4------ 2------|
E|--------------------------------|--------------------------------|
http://classicalguitartablature.blogspot.com/
E|--------------------------------|--------------------------------|
B|------ 2------------------ 0 2--| 3---------- 3---- 0------------|
G|------ 2-------------- 2--------|------ 1-------------- 2---- 2--|
D|---- 2------ 2------ 2----------|---- 2--------------------------|
A| 0-------------- 0--------------|------------------------------ 0|
E|--------------------------------| 0------------ 2-------- 4------|
http://classicalguitartablature.blogspot.com/
E|--------------------------------|--------------------------------|
B|-------------------- 3----------|--------------------------------|
G|---- 2------------------ 2------|-------------- 0---- 2------ 4--|
D|------------ 2-------------- 4--|---- 2-------------- 0------ 2--|
A|-------------- 5----------------| 0------------------------------|
E|--------------------------------|-------- 0------ 2------ 4------|
http://classicalguitartablature.blogspot.com/
E|---------------------- 9--------|--------------------------------|
B|--------10----12------10------ 9|------------ 9-- 9------ 9------|
G|-------- 9------ 9------------10|--------10--------------10------|
D|----11------11--11--11------11--|---- 9---------- 9------ 9------|
A| 0------------------------------|--------------------------------|
E|---------------- 0--------------| 9-------------- 9--------------|
http://classicalguitartablature.blogspot.com/
E|-------------- 4---------- 5-- 7| 5---------- 5-- 4---- 2--------|
B|------------ 7-------- 7------ 7|--------------------------------|
G|------ 7------------ 7-------- 7|-------- 7----------------------|
D|---- 7--------------------------|--------------------------------|
A| 5-------------- 0--------------| 5-------------- 4------ 2------|
E|--------------------------------|--------------------------------|
http://classicalguitartablature.blogspot.com/
E|------------ 0 0------------ 0--| 2------------------------------|
B|--------------------------------| 2---------- 5-- 3------ 2------|
G|-------- 2-------------- 2------|-------- 3------ 3------ 3------|
D|---- 2-------------- 2----------|---- 2-------------- 2------ 2--|
A| 0------------------------------|---------------- 4--------------|
E|---------------- 0--------------| 2------------------------------|
http://classicalguitartablature.blogspot.com/
E|--------------------------------|--------------------------------|
B|------------ 0-- 0---- 0--------|--------------------------------|
G|------ 2-------------------- 2--| 1---------- 1-- 2------ 4------|
D|---- 1-------------- 1-------- 2|------------ 2-- 0------ 2------|
A| 2------------------------------|--------------------------------|
E|---------------- 2--------------| 0-------------- 2------ 4------|
http://classicalguitartablature.blogspot.com/
E|---------------------- 9--------|--------------------------------|
B|--------10----12------10------ 9|------------ 9-- 9------ 9------|
G|-------- 9------ 9------------10|--------10--------------10------|
D|----11------11--11--11------11--|---- 9---------- 9------ 9------|
A| 0------------------------------|--------------------------------|
E|---------------- 0--------------| 9-------------- 9--------------|
http://classicalguitartablature.blogspot.com/
E|-------------- 4---------- 5-- 7| 5---------- 5-- 4---- 2--------|
B|------------ 7-------- 7------ 7|--------------------------------|
G|------ 7------------ 7-------- 7|-------- 7----------------------|
D|---- 7--------------------------|--------------------------------|
A| 5-------------- 0--------------| 5-------------- 4------ 2------|
E|--------------------------------|--------------------------------|
http://classicalguitartablature.blogspot.com/
E|-------- 0------ 0-- 2------ 4--|------------ 4-------- 7--------|
B|-------- 2------ 2-- 2------ 3--|-------- 3------10----10--------|
G|------------ 2-- 2-- 2-------- 4|---- 4---------- 7---- 7--------|
D|---- 2--------------------------|---------------- 9--------------|
A| 0------------------------------|--------------------------------|
E|---------------- 0--------------| 0-------------- 7--------------|
http://classicalguitartablature.blogspot.com/
E| 9------------------------------|--------------------------------|
B| 9---------- 9-------------- 9--|------------11------------------|
G|--------10------------10--------|-------- 9-------------- 9------|
D|---- 9-------------- 9----------|----11--------------11------11--|
A|----------------11------------ 9|--------------------------------|
E| 9------------------------------|---------------- 9--------------|
http://classicalguitartablature.blogspot.com/
E| 5---------------------------- 7|---------------------- 7 9 7----|
B| 7---------- 7------------------|------ 9------------------------|
G|-------- 7-------------- 7------|---- 9------ 9------ 9----------|
D|---- 7-------------- 7------ 7--|--------------------------------|
A| 5------------------------------|--------------------------------|
E|---------------- 5--------------| 0-------------- 7--------------|
http://classicalguitartablature.blogspot.com/
E|---------- 9--------------------|--------------------------------|
B|----10----1210------------------|-------- 2------------------ 0--|
G|---- 9------------------ 7------|-------- 2-------------- 1------|
D|-------------------- 7------ 7--|---- 2------ 2------ 2----------|
A| 0------------------------------| 0------------------------------|
E|----------------10--------------|---------------- 0--------------|
http://classicalguitartablature.blogspot.com/
E|--------------------------------|--------------------------------|
B|------ 2------------------------|--------------------------------|
G|------ 2------------------------|--------------------------------|
D|---- 2--------------------------|--------------------------------|
A|---- 0--------------------------|--------------------------------|
E|--------------------------------|--------------------------------|
http://classicalguitartablature.blogspot.com/

0 ความคิดเห็น:

แสดงความคิดเห็น