To celebrate the anniversary, I am giving you (finally...) : iPhone LickByNeck !!!!!!

Superstition (BASIC)

Stevie Wonder's tune fingerstyle chord melody guitar BASIC arrangement played in the key of E.

Superstition-Stevie Wonder-Intermediate Arrangement played in the key of E.
http://classicalguitartablature.blogspot.com/
E|--------------------------------|--------------------------------|
B|--------------------------------|--------------------------------|
G|--------------------------------|--------------------------------|
D|--------------------------------|--------------------------------|
A|------------ 7--10---- 5---- 5--|------------ 7--10---- 5---- 5--|
E| 0-- 7--10---------------- 7----| 0-- 7--10---------------- 7----|
http://classicalguitartablature.blogspot.com/
E|--------------------------------|-------------------------- 3----|
B|--------------------------------|-------------- 3 5---- 5-- 3----|
G|--------------------------------|--------------------------------|
D|--------------------------------|-------- 0-- 2 5---- 0------ 0 2|
A|------------ 7--10---- 5---- 5--|---- 2------------------ 2------|
E| 0-- 7--10---------------- 7----| 0------------------------------|
http://classicalguitartablature.blogspot.com/
http://classicalguitartablature.blogspot.com/
E|--------------------------------|--------------------------------|
B|---- 5--------------------------|---------------- 3--------------|
G|---- 3-------- 0----------------|------------------ 3-- 2-- 0 0 2|
D|-------- 0-- 2-------- 0---- 0 2|-------- 0-- 2-- 5-- 0------ 0 2|
A|---- 2------------------ 2------|---- 2------------------ 2------|
E| 0------------------------------| 0------------------------------|
http://classicalguitartablature.blogspot.com/
E|--------------------------------|-------------------------- 3----|
B|--------------------------------|-------------- 3 5---- 5-- 3----|
G|---- 0---------- 0--------------|--------------------------------|
D|-------- 0-- 2-------- 0---- 0 2|-------- 0-- 2 5---- 0------ 0 2|
A|---- 2-------------------- 2----|---- 2------------------ 2------|
E| 0------------------------------| 0------------------------------|
http://classicalguitartablature.blogspot.com/
E|--------------------------------|--10-- 7------------------------|
B|---- 5--------------------------|---- 8 8-------- 3--------------|
G|---- 3-------- 0----------------|------------------ 3-- 2-- 0 0 2|
D|-------- 0-- 2-------- 0---- 0 2|-------- 0-- 2-- 5-- 0------ 0 2|
A|---- 2------------------ 2------|------------------------ 2------|
E| 0------------------------------| 0-- 7--------------------------|
http://classicalguitartablature.blogspot.com/
E|--------------------------------|--10--12------------------ 3----|
B|--------------------------------|--10--12------ 3 5---- 5-- 3----|
G|---- 0---------- 0--------------|--------------------------------|
D|-------- 0-- 2-------- 0---- 0 2|-------- 0-- 2 5---- 0------ 0 2|
A|---- 2-------------------- 2----|------------------------ 2------|
E| 0------------------------------| 0 7----------------------------|
http://classicalguitartablature.blogspot.com/
E|--------------------------------|-- 5-- 3------------------------|
B|---- 5--------------------------|---- 5 3-------- 3--------------|
G|---- 3-------- 0----------------|------------------ 3-- 2-- 0 0 2|
D|-------- 0-- 2-------- 0---- 0 2|-------- 0-- 2-- 5-- 0------ 0 2|
A|---- 2------------------ 2------|---- 2------------------ 2------|
E| 0------------------------------| 0------------------------------|
http://classicalguitartablature.blogspot.com/
E|--------------------------------|--10--12------------------------|
B|--------------------------------|--10--12-------- 0-- 0---- 0----|
G|---- 0---------- 0--------------|---------------- 4-- 4---- 4----|
D|-------- 0-- 2-------- 0---- 0 2|-------- 0-- 2-- 5 0------ 0 2--|
A|---- 2-------------------- 2----|------------------------ 2------|
E| 0------------------------------| 0 7----------------------------|
http://classicalguitartablature.blogspot.com/
E| 2------ 2-- 0-- 2------ 2---- 0| 2------ 2-- 0-- 2---- 2-- 0-- 3|
B| 4------ 4-- 4-- 5------ 5-- 5--| 4---- 4---- 4-- 3---- 3-- 3-- 2|
G|--------------------------------|--------------------------------|
D|--------------------------------|--------------------------------|
A| 2-- 2-- 2-- 2-- 3-- 3-- 3-- 3--| 2-- 2-- 2-- 2-- 1-- 1-- 1-- 1--|
E|--------------------------------|--------------------------------|
http://classicalguitartablature.blogspot.com/
E|---- 0---------- 0------101010--|----12----10--------------------|
B|---- 0---- 0 2----------101010--|----12------1010-- 8------------|
G|------------------------ 8 8 8--|---- 9------ 7 9-- 7---- 9-- 7--|
D|--------------------------------|-------------- 7-- 5---- 9-- 7--|
A| 0------------------------------|------------------------ 7-- 5--|
E|------------------------ 7 7 7 7|--------------------------------|
http://classicalguitartablature.blogspot.com/
E| 0------------------------------|10------ 9------ 7-- 9---- 0----|
B| 0------------------------------|11------10------ 8--10---- 0----|
G| 9------------------------------|---------------- 0--------------|
D| 9------------------------------|------------------ 0------ 0 2 0|
A| 7---------- 7--10---- 5---- 5 7|------------ 7---------- 2------|
E| 0-- 7--10---------------- 7----| 0-- 7--10-------------------- 0|
http://classicalguitartablature.blogspot.com/
E|--------------------------------|10------ 9------ 7-- 9---- 0----|
B|--------------------------------|11------10------ 8--10---- 0----|
G|-------------- 0----------------|---------------- 0--------------|
D|-------- 0 2---------- 0-- 0 2--|------------------ 0------ 0 2 0|
A|---- 2-------------------- 2----|------------ 7---------- 2------|
E|--------------------------------| 0-- 7--10-------------------- 0|
http://classicalguitartablature.blogspot.com/
E|--------------------------------|-------------------------- 3----|
B|--------------------------------|-------------- 3 5---- 5-- 3----|
G|-------------- 0----------------|--------------------------------|
D|-------- 0 2---------- 0-- 0 2--|-------- 0-- 2 5---- 0------ 0 2|
A|---- 2-------------------- 2----|---- 2------------------ 2------|
E|--------------------------------| 0------------------------------|
http://classicalguitartablature.blogspot.com/
E|--------------------------------|--------------------------------|
B|---- 5--------------------------|--------------------------------|
G|---- 4--------------------------|--------------------------------|
D|---- 2--------------------------|--------------------------------|
A|---- 2--------------------------|--------------------------------|
E| 0-- 0--------------------------|--------------------------------|
http://classicalguitartablature.blogspot.com/

0 ความคิดเห็น:

แสดงความคิดเห็น