To celebrate the anniversary, I am giving you (finally...) : iPhone LickByNeck !!!!!!
0 com

Love Song For A Vampire (BASIC)

Annie Lennox's tune fingerstyle chord melody guitar BASIC arrangement played in the key of C.

Love Song For A Vampire-Annie Lennox-BASIC ARRANGEMENT played in the key of C.
http://classicalguitartablature.blogspot.com/
E|--------------------------------|--------------------------------|
B| 1-- 0 1------ 1-- 0-- 1------ 1|-- 0-- 1------ 1-- 0-- 1--------|
G| 0 0-- 0-- 0-- 0---------- 0-- 0|-- 0-- 0-- 0-- 0-- 0------ 0----|
D| 2-- 2 2---------------------- 2|-- 2-- 2------------------------|
A| 3------------ 3-------------- 3|-------------- 3-------------- 3|
E|-------------------------- 3----|---------------------------- 3--|
http://classicalguitartablature.blogspot.com/
E|------------ 0-------- 0-- 3-- 7|------ 7-- 5-------------- 5-- 5|
B|------ 1-- 3 1-------- 1-- 1----|------ 5-- 5 5-------- 5------ 8|
G|------ 0-- 0-------------- 0----|-- 5-------- 5-------- 5------ 5|
D|-- 2---------------- 2----------|-------------------- 5----------|
A|---------------- 3--------------| 0-------------- 0------------ 8|
E|--------------------------------|--------------------------------|
http://classicalguitartablature.blogspot.com/
http://classicalguitartablature.blogspot.com/
E|---------------------------- 0--|--------------------------------|
B|--------------------------------| 3 1----------------------------|
G|------ 5------ 5------ 5-- 7----| 0 0-------------------- 0------|
D|-- 7-- 7---------- 7------------|------ 2------------ 2----------|
A|---------- 8-- 8-------------- 3|---------- 3-- 3----------------|
E|--------------------------------|-------------------------- 3----|
http://classicalguitartablature.blogspot.com/
E|------------ 0-------- 0-- 3-- 7|------ 7-- 8 5-------- 5------ 3|
B|------ 1-- 3---------- 1-- 1-- 5|------ 5-- 5 5-------- 5-- 8-- 1|
G|------ 0------------------------| 5 5---------------------- 5----|
D|---- 2-- 2-------- 2------------|-------------------- 5----------|
A| 3-------------- 3--------------| 0-------------- 0--------------|
E|--------------------------------|--------------------------------|
http://classicalguitartablature.blogspot.com/
E|-------------------------- 0----|-------------------------- 3-- 3|
B|------ 1-------- 1---- 1---- 3--|------ 3---------------------- 1|
G| 2---- 2-------- 2---- 2---- 0--|------ 0-------------- 0--------|
D|-- 3-------------- 3---------- 0|-- 0-------------- 0------------|
A|--------------------------------|--------------------------------|
E| 1---------- 1-- 1--------------| 3---------- 3-- 3------------ 1|
http://classicalguitartablature.blogspot.com/
E|------ 3------------------ 5-- 3|------ 3-- 0 0------------ 3----|
B|------ 1-- 1 1-------- 1------ 1|------ 1-- 1 1-- 3 1------ 1----|
G|------ 2-- 2 2---------------- 0|------ 0-- 0 0-- 0 0------------|
D|-- 3-------- 3---- 3------------|-- 2-------------------- 2------|
A|------------------------------ 3|---------------- 3--------------|
E|---------------- 1--------------|--------------------------------|
http://classicalguitartablature.blogspot.com/
E| 3------------------------ 0----|--------------------------------|
B| 1------ 1------ 1---- 1---- 3--|------ 3-------------- 3--------|
G| 2------ 2------ 2---- 2--------|------ 0-------------- 0--------|
D|---- 3------------ 3------------|-- 0-------------- 0------------|
A|--------------------------------|------------------------------ 3|
E| 1---------- 1-- 1--------------| 3-------- 3-- 3---------- 3----|
http://classicalguitartablature.blogspot.com/
E|------------ 0-------- 0-- 3-- 7|------ 7-- 5-------------- 5-- 5|
B|------ 1-- 3 1-------- 1-- 1----|------ 5-- 5 5-------- 5--------|
G|------ 0-- 0-------------- 0----|-- 5-------- 5-------- 5------ 5|
D|-- 2---------------- 2----------|-------------------- 5----------|
A|---------------- 3--------------| 0-------------- 0--------------|
E|--------------------------------|--------------------------------|
http://classicalguitartablature.blogspot.com/
E|------------------------------ 0|------------------------------ 0|
B|-------------------------- 8-- 1| 3 1-------------- 1------ 3-- 1|
G|------ 5-------- 5------ 5---- 0| 0 0-------------- 0------ 0-- 2|
D|-- 7-- 7-------- 7-- 7----------|-- 2-- 2---------- 2------ 0----|
A| 8-------- 8---- 8--------------| 3-------- 3-- 3-------- 2---- 0|
E|--------------------------------|--------------------------------|
http://classicalguitartablature.blogspot.com/
E|-- 0-- 0---- 0---- 0-- 0-- 5 4--|------ 4---- 4---- 8-- 7-- 5 7--|
B| 3 1 3 1-- 3---- 3 3 3----------|-- 5-- 5---- 5-------------- 5--|
G| 2 2 2 2------------ 2----------|-- 4-- 4-- 4 4-------------- 5--|
D| 2-- 2--------------------------|-- 6------ 6--------------------|
A|---------------- 0--------------|--------------------------------|
E|--------------------------------| 0-------------- 0--------------|
http://classicalguitartablature.blogspot.com/
E|-- 5-------------------------- 0|---- 0------------------------ 0|
B|-- 5-- 5------ 5-- 5---- 5-- 8--|---- 1-- 3-- 1 1-------------- 1|
G|---------- 7------ 7 7----------|-------- 0-- 0 0-------------- 0|
D|--------------------------------|-------------------- 2------ 0--|
A| 8-------------- 8--------------| 3-------------- 3------ 2---- 0|
E|--------------------------------|--------------------------------|
http://classicalguitartablature.blogspot.com/
E|-- 0-- 0---- 0---- 0-- 0-- 5 4--|------ 4-- 5 4---- 8-- 7-- 5 7--|
B| 3 1 3 1-- 3---- 3 3 3------ 5--|-- 5-- 5-- 5 5-------- 5-- 5----|
G| 2 2 2 2------------ 2------ 4--|-- 4-- 4-- 4 4-------------- 7--|
D| 2-- 2--------------------------|-- 6----------------------------|
A|---------------- 0--------------|------------------------------ 5|
E|--------------------------------| 0-------------- 0--------------|
http://classicalguitartablature.blogspot.com/
E| 5---------------------------- 0|---- 0-- 0---- 0---- 0-- 0------|
B| 6---- 5---- 5---- 5---- 5 8-- 3|-- 3 3 3 3-- 3 3-- 3 3-- 3 3 1--|
G|---------- 7---- 7-- 7-------- 0|-- 0 0 0 0-- 0 0-- 0 0-- 0 0----|
D|--------------------------------|-- 0-------- 0---- 0 0------ 0--|
A|-------------- 5----------------|------------------------------ 3|
E|--------------------------------| 3-------------- 3--------------|
http://classicalguitartablature.blogspot.com/
E|------------ 0-------- 0-- 3-- 7|------ 7-- 5-------------- 5-- 5|
B|------ 1-- 3 1-------- 1-- 1----|------ 5-- 5 5-------- 5--------|
G|------ 0-- 0-------------- 0----|-- 5-------- 5-------- 5------ 5|
D|-- 2---------------- 2----------|-------------------- 5----------|
A|---------------- 3--------------| 0-------------- 0--------------|
E|--------------------------------|--------------------------------|
http://classicalguitartablature.blogspot.com/
E|------------------------------ 0|--------------------------------|
B|-------------------------- 8-- 1| 3 1---------- 1-- 0-- 1------ 1|
G|------ 5-------- 5------ 5---- 0|-- 0------ 0-- 0-- 0-- 0-- 0-- 0|
D|-- 7-- 7-------- 7-- 7----------|-- 2---------- 2-- 2-- 2------ 2|
A| 8-------- 8---- 8------------ 3|---------------- 3------------ 3|
E|--------------------------------|-------------------------- 3----|
http://classicalguitartablature.blogspot.com/
E|--------------------------------|--------------------------------|
B|-- 0-- 1------ 1-- 0-- 1------ 1|-- 0-- 1------ 1-- 0---- 1------|
G|-- 0-- 0-- 0-- 0-- 0------ 0-- 0|-- 0-- 0-- 0-- 0-- 0-------- 0--|
D|-- 2-- 2---------------------- 2|-- 2-- 2---------- 2------------|
A|-------------- 3-------------- 3|-------------- 3----------------|
E|---------------------------- 3--|---------------------------- 3--|
http://classicalguitartablature.blogspot.com/
E|--------------------------------|--------------------------------|
B|------------ 1------------------|--------------------------------|
G|--------------------------------|--------------------------------|
D|------------ 2------------------|--------------------------------|
A|---------- 3--------------------|--------------------------------|
E|--------------------------------|--------------------------------|
http://classicalguitartablature.blogspot.com/
0 com

Daddy Cool (BASIC)

Boney M's tune fingerstyle chord melody guitar BASIC arrangement played in the key of Bm.

Daddy Cool-Boney M-BASIC ARRANGEMENT played in the key of Bm.
http://classicalguitartablature.blogspot.com/
E|--------------------------------|--------------------------------|
B|--------------------------------|--------------------------------|
G|-- 4-- 4---- 4-- 4------ 4-- 4--| 2------------------------------|
D|-- 4-- 4---- 4-- 4------ 4-- 4--| 2------------------------------|
A|--------------------------------|--------------------------------|
E|--------------------------------|--------------------------------|
http://classicalguitartablature.blogspot.com/
E|--------------------------------|--------------------------------|
B|--------------------------------|--------------------------------|
G|-------------------------- 4----|--------------------------------|
D|---- 4-- 4---- 4---- 4---- 4----|--------------------------------|
A|--------------------------------|--------------------------------|
E|--------------------------------|--------------------------------|
http://classicalguitartablature.blogspot.com/
http://classicalguitartablature.blogspot.com/
E|--------------------------------|--------------------------------|
B|--------------------------------|--------------------------------|
G|--------------------------------|--------------------------------|
D|--------------------------------|--------------------------------|
A| 2-- 2-- 2-- 2-- 2-- 5-- 4-- 2--| 0-- 0-- 0-- 0-- 0------ 0-- 1--|
E|--------------------------------|-------------------- 2----------|
http://classicalguitartablature.blogspot.com/
E|--------------------------------|--------------------------------|
B|--------------------------------|--------------------------------|
G|--------------------------------|--------------------------------|
D|--------------------------------|--------------------------------|
A| 2-- 2-- 2-- 2-- 2-- 5-- 4-- 2 0|---- 0-- 0-- 0-- 0---- 0---- 1--|
E|--------------------------------|-------------------- 2----------|
http://classicalguitartablature.blogspot.com/
E|--------------------------------|------------------ 2 0----------|
B|-------------------------- 0 3--|------------------------ 3------|
G| 4-- 4------ 4-------- 0--------| 2 2-------- 2-------------- 2--|
D|-------- 4-------- 4------------|-------- 2----------------------|
A| 2-- 2-- 2-- 2-- 2-- 5-- 4-- 2--| 0-- 0-- 0-- 0-- 0------ 0-- 1--|
E|--------------------------------|-------------------- 2----------|
http://classicalguitartablature.blogspot.com/
E|--------------------------------|------------------ 2 0----------|
B|-------------------------- 0 3--|------------------------ 3------|
G| 4-- 4------ 4-------- 0--------| 2 2-------- 2-------------- 2--|
D|-------- 4-------- 4------------|-------- 2----------------------|
A| 2-- 2-- 2-- 2-- 2-- 5-- 4-- 2 0|---- 0-- 0-- 0-- 0---- 0---- 1--|
E|--------------------------------|-------------------- 2----------|
http://classicalguitartablature.blogspot.com/
E|--------------------------------|--------------------------------|
B|--------------------------------|-------------------- 2----------|
G|------ 4---- 4------------------|------------------------ 2------|
D|------ 4---- 4------------------|--------------------------------|
A| 2-- 2-- 2-- 2-- 2-- 5-- 4-- 2--| 0-- 0-- 0-- 0 0-------- 0------|
E|--------------------------------|-------------------- 0------ 3--|
http://classicalguitartablature.blogspot.com/
E|--------------------------------|--------------------------------|
B|--------------------------------|---------------------- 0-- 0----|
G|--------------------------------|-------------------- 2-- 2------|
D|-------- 4-- 4------------------|------------------ 4------------|
A|------------------------ 0------| 2-- 2-- 2-- 2-- 2-- 2------ 0--|
E| 2-- 2-- 2-- 2-- 2-- 2------ 2--|------------------------ 2------|
http://classicalguitartablature.blogspot.com/
E|--------------------------------|--------------------------------|
B|--------------------------------|-------------------- 2----------|
G|------ 4---- 4------------------|------------------------ 2------|
D|------ 4---- 4------------------|--------------------------------|
A| 2-- 2-- 2-- 2-- 2-- 5-- 4-- 2--| 0-- 0-- 0-- 0 0-------- 0------|
E|--------------------------------|-------------------- 0------ 3--|
http://classicalguitartablature.blogspot.com/
E|--------------------------------|--------------------------------|
B|--------------------------------|---------------------- 0-- 0----|
G|--------------------------------|-------------------- 2-- 2------|
D|-------- 4-- 4------------------|------------------ 4------------|
A|------------------------ 0------| 2-- 2-- 2-- 2-- 2-- 2------ 0--|
E| 2-- 2-- 2-- 2-- 2-- 2------ 2--|------------------------ 2------|
http://classicalguitartablature.blogspot.com/
E|--------------------------------|--------------------------------|
B|--------------------------------|--------------------------------|
G|-- 4-- 4-- 4---- 4------ 4-- 4 2|--------------------------------|
D|-- 4-- 4-- 4---- 4------ 4-- 4--| 2------------------------------|
A| 2-- 2-- 2-- 2-- 2-- 5-- 4-- 2--| 0-- 0-- 0-- 0 0-------- 0------|
E|--------------------------------|-------------------- 0------ 3--|
http://classicalguitartablature.blogspot.com/
E|--------------------------------|--------------------------------|
B|--------------------------------|--------------------------------|
G|---------------------------- 4--|--------------------------------|
D|---- 4-- 4------ 4-- 4------ 4--|--------------------------------|
A|------------------------ 0------| 2-- 2-- 2-- 2-- 2-- 2------ 0--|
E| 2-- 2-- 2-- 2-- 2-- 2------ 2--|------------------------ 2------|
http://classicalguitartablature.blogspot.com/
E|--------------------------------|--------------------------------|
B|--------------------------------|--------------------------------|
G|-- 4-- 4-- 4---- 4------ 4-- 4 2|--------------------------------|
D|-- 4-- 4-- 4---- 4------ 4-- 4--| 2------------------------------|
A| 2-- 2-- 2-- 2-- 2-- 5-- 4-- 2--| 0-- 0-- 0-- 0 0-------- 0------|
E|--------------------------------|-------------------- 0------ 3--|
http://classicalguitartablature.blogspot.com/
E|--------------------------------|--------------------------------|
B|--------------------------------|--------------------------------|
G|---------------------------- 4--|------------------------------ 4|
D|---- 4-- 4------ 4-- 4------ 4--|------------------------------ 4|
A|------------------------ 0------| 2-- 2-- 2-- 2-- 2-- 2------ 0--|
E| 2-- 2-- 2-- 2-- 2-- 2------ 2--|------------------------ 2------|
http://classicalguitartablature.blogspot.com/
E|--------------------------------|--------------------------------|
B|--------------------------------|--------------------------------|
G|---- 4-------------- 4-- 4-- 4--| 2------------------------------|
D|---- 4-------------- 4-- 4-- 4--| 2---------------------------- 4|
A| 2-- 2-- 2-- 2-- 2-- 5-- 4-- 2--| 0-- 0-- 0-- 0 0-------- 0------|
E|--------------------------------|-------------------- 0------ 3--|
http://classicalguitartablature.blogspot.com/
E|--------------------------------|--------------------------------|
B|--------------------------------|--------------------------------|
G|---------------------------- 4--|------------------------------ 4|
D|-- 4---------------- 4-- 4-- 4--|------------------------------ 4|
A|------------------------ 0------| 2-- 2-- 2-- 2-- 2-- 2------ 0--|
E| 2-- 2-- 2-- 2-- 2-- 2------ 2--|------------------------ 2------|
http://classicalguitartablature.blogspot.com/
E|--------------------------------|--------------------------------|
B|--------------------------------|--------------------------------|
G|---- 4-------------- 4-- 4-- 4--| 2------------------------------|
D|---- 4-------------- 4-- 4-- 4--| 2---------------------------- 4|
A| 2-- 2-- 2-- 2-- 2-- 5-- 4-- 2--| 0-- 0-- 0-- 0 0-------- 0------|
E|--------------------------------|-------------------- 0------ 3--|
http://classicalguitartablature.blogspot.com/
E|--------------------------------|--------------------------------|
B|--------------------------------|--------------------------------|
G|---------------------------- 4--|--------------------------------|
D|-- 4---------------- 4-- 4-- 4--|--------------------------------|
A|------------------------ 0------| 2-- 2-- 2-- 2-- 2-- 2------ 0--|
E| 2-- 2-- 2-- 2-- 2-- 2------ 2--|------------------------ 2------|
http://classicalguitartablature.blogspot.com/
E|------------------------ 0------|--------------------------------|
B|--------------------------------| 3---- 0-- 2-- 3-- 0------------|
G|-------- 0------ 2--------------| 0------------------------ 2-- 4|
D| 4-------------- 2--------------| 0-------------------- 4------ 4|
A| 2-------------- 0--------------|--------------------------------|
E|--------------------------------| 3------------------------------|
http://classicalguitartablature.blogspot.com/
E|-------------------------- 2----|--------------------------------|
B|------------------ 2---- 3------| 5------ 3---- 2----------------|
G|-------------- 4----------------| 2------ 2---- 2------ 2--------|
D|-------------- 4----------------|-- 2----------------------------|
A| 2------------------------------| 0------------------------------|
E|--------------------------------|--------------------------------|
http://classicalguitartablature.blogspot.com/
E|---- 3-- 2-- 0------------------|--------------------------------|
B| 0------ 0------ 3-- 2-- 0------|--------------------------------|
G| 0------ 0------ 0---------- 2--|-- 4-- 4-- 4---- 4------ 4-- 4 2|
D|--------------------------------|-- 4-- 4-- 4---- 4------ 4-- 4--|
A|--------------------------------| 2-- 2-- 2-- 2-- 2-- 5-- 4-- 2--|
E| 3------ 3------ 3------ 3------|--------------------------------|
http://classicalguitartablature.blogspot.com/
E|--------------------------------|--------------------------------|
B|--------------------------------|--------------------------------|
G|--------------------------------|---------------------------- 4--|
D| 2------------------------------|---- 4-- 4------ 4-- 4------ 4--|
A| 0-- 0-- 0-- 0 0-------- 0------|------------------------ 0------|
E|-------------------- 0------ 3--| 2-- 2-- 2-- 2-- 2-- 2------ 2--|
http://classicalguitartablature.blogspot.com/
E|--------------------------------|--------------------------------|
B|--------------------------------|--------------------------------|
G|------------------------------ 4|---- 4-------------- 4-- 4-- 4--|
D|------------------------------ 4|---- 4-------------- 4-- 4-- 4--|
A| 2-- 2-- 2-- 2-- 2-- 2------ 0--| 2-- 2-- 2-- 2-- 2-- 5-- 4-- 2--|
E|------------------------ 2------|--------------------------------|
http://classicalguitartablature.blogspot.com/
E|--------------------------------|--------------------------------|
B|--------------------------------|--------------------------------|
G| 2------------------------------|---------------------------- 4--|
D| 2---------------------------- 4|-- 4---------------- 4-- 4-- 4--|
A| 0-- 0-- 0-- 0 0-------- 0------|------------------------ 0------|
E|-------------------- 0------ 3--| 2-- 2-- 2-- 2-- 2-- 2------ 2--|
http://classicalguitartablature.blogspot.com/
E|--------------------------------|--------------------------------|
B|--------------------------------|--------------------------------|
G|--------------------------------|---------------------------- 2 4|
D|--------------------------------| 4-- 4------ 4------ 4-- 4------|
A| 2-- 2-- 2-- 2-- 2-- 2------ 0--|---------------------------- 0--|
E|------------------------ 2------| 2-- 2------ 2------ 2-- 2------|
http://classicalguitartablature.blogspot.com/
E|--------------------------------|--------------------------------|
B|--------------------------------|--------------------------------|
G|--------------------------------|--------------------------------|
D|--------------------------------|--------------------------------|
A| 2------------------------------|--------------------------------|
E|--------------------------------|--------------------------------|
http://classicalguitartablature.blogspot.com/
0 com

More Than Words Can Say (BASIC)

Alias' tune fingerstyle chord melody guitar BASIC arrangement played in the key of G.

More Than Words Can Say-Alias-BASIC ARRANGEMENT played in the key of G.
http://classicalguitartablature.blogspot.com/
E|--------------------------------|--------------------------------|
B| 3---- 3-------- 3------ 3------|------ 0-- 3 3---------- 3---- 1|
G| 0---- 0-------- 0------ 0------|---- 0-------------- 2---- 2----|
D|---- 0------ 0------ 0------ 0--|-- 0-------------- 4-------- 4--|
A|--------------------------------|--------------------------------|
E| 3---------------------------- 3|---------------- 3--------------|
http://classicalguitartablature.blogspot.com/
E|--------------------------------|-------- 3-- 2---- 0---------- 0|
B|-- 1 1---- 1 0-- 1 0------ 0----|------ 0---- 3------ 3---- 3----|
G| 0 0 0---------- 0---- 0--------|---- 0------ 2-------- 2--------|
D| 2 2 2 2-------- 0-- 0------ 0--|-- 0----------------------------|
A|--------------------------------|--------------------------------|
E| 3-------------- 3--------------| 3-------------- 3--------------|
http://classicalguitartablature.blogspot.com/
http://classicalguitartablature.blogspot.com/
E|--------------------------------|---------- 0--------------------|
B|-- 3------ 3------------ 3------|------ 0------ 3---------- 3----|
G|-- 0---- 0---- 0---- 2---- 2----|------ 0------------ 2---- 2----|
D|------ 2---------- 0------------|---- 0-------------- 4------ 4--|
A|--------------------------------|--------------------------------|
E| 3-------------- 3--------------| 3-------------- 3--------------|
http://classicalguitartablature.blogspot.com/
E|--------------------------------|---------- 3-- 5 2------------ 0|
B| 1 1------ 1 3-- 1 0------ 0----|-------- 0-------- 5 3---- 3-- 1|
G| 0 0------------ 0-------- 0-- 0|------ 0---------------- 2---- 0|
D| 2 2-- 2------ 0------ 0--------|---- 0--------------------------|
A|--------------------------------|--------------------------------|
E| 3-------------- 3--------------| 3-------------- 3--------------|
http://classicalguitartablature.blogspot.com/
E|--------------------------------|-------- 3-- 2------------------|
B|-- 3------ 3---------- 3-- 3----| 1-------------------------- 3 3|
G|-------- 0-- 0------ 0---- 0----| 0---- 0---- 2------ 2-------- 2|
D|------ 2---------- 5------------|---- 2------------ 4------ 4----|
A| 3-------------- 5--------------| 3------------ 5-------------- 2|
E|--------------------------------|--------------------------------|
http://classicalguitartablature.blogspot.com/
E|------------ 0------------------|---------- 0--------------------|
B|-- 0 3---- 3 1-- 3 1-------- 1--|------------ 3------------ 3----|
G|-- 2-- 2-- 2---- 0 0------ 0----|------ 0-------------- 5---- 5--|
D| 0-- 0 0-- 0 2-------- 2--------|---- 2-------------- 5-------- 5|
A|---------------- 3------------ 3|---------------- 5--------------|
E|--------------------------------|--------------------------------|
http://classicalguitartablature.blogspot.com/
E|------------------ 3-- 2-- 3----|--------------------------------|
B|---------- 3------------------ 3|-------- 3------------ 3---- 3--|
G|------ 5-- 5--------------------|------ 0-- 0-------- 2------ 2--|
D|---- 5-------- 5----------------|---- 0------ 0---- 4------------|
A| 5------------ 5----------------|---------------- 2--------------|
E|--------------------------------| 3------------------------------|
http://classicalguitartablature.blogspot.com/
E|-------- 0 3-- 5----------------|------------------------------ 7|
B| 1-- 3 1------ 5-- 8-- 7 8-- 3--|------ 3---------------- 3-- 3 5|
G| 0-- 0-------- 5----------------|---- 0---- 0-------- 2---- 2-- 5|
D| 2-- 2------------ 5------------|-- 0-------- 0---- 4------------|
A| 3-------------- 5--------------|-------------- 2-------------- 0|
E|------------------------------ 3|--------------------------------|
http://classicalguitartablature.blogspot.com/
E|---- 5-- 5-- 5------------------|------------------------------ 7|
B|---- 5-- 5 8 5---- 8-- 7-- 8-- 3|------ 3------------------ 3-- 5|
G|-- 5---- 5-- 5------------------|---- 0---- 0-------- 2-------- 5|
D|------------------ 5------------|---- 0-------- 0-- 4---- 4------|
A|-------------- 5----------------|---------------- 2--------------|
E|--------------------------------| 3---------------------------- 8|
http://classicalguitartablature.blogspot.com/
E|-- 8 7------ 5---------------- 3|------ 3---- 3---------- 3------|
B|-- 5 5---- 8------ 8-- 8 7---- 3|------ 3---- 3---------- 3------|
G|-- 5 5------------ 5---------- 0|------ 0---- 0------ 0----------|
D|---------------- 5--------------|---------------------------- 0--|
A|-------------- 5-------------- 3|---------- 0 2------------------|
E|--------------------------------|--------------------------------|
http://classicalguitartablature.blogspot.com/
E|--------------------------------|---------- 3--------------------|
B| 5---------------- 5------------|------ 3------------------------|
G| 5---------- 5------------------|------ 0------------------------|
D| 5---- 5------------------------|------ 0------------------------|
A| 5------------------------------|--------------------------------|
E|--------------------------------|------ 3------------------------|
http://classicalguitartablature.blogspot.com/
0 com

Brown Girl In The Ring (BASIC)

Boney M's tune fingerstyle chord melody guitar BASIC arrangement played in the key of C.

Brown Girl In The Ring-Boney M-BASIC ARRANGEMENT played in the key of C.
http://classicalguitartablature.blogspot.com/
E|--------------------------------|--------------------------------|
B|--------------------------------|--------------------------------|
G|--------------------------------|--------------------------------|
D|--------------------------------|--------------------------------|
A| 3---------------- 3 3-------- 3|------------------ 3 3----------|
E|---- 0------ 3---------- 0 3----|------ 0---- 3---------- 0-- 3--|
http://classicalguitartablature.blogspot.com/
E| 0------ 0------ 0------------ 0|-------- 0-- 1 3----------------|
B| 1------ 1------ 1-- 3 1------ 1|---- 3-- 1---- 1-------------- 3|
G| 0------ 0------ 0---- 0--------| 0-- 0-- 0---- 0-------------- 0|
D|-------------------- 2 2--------|---- 2------------------------ 0|
A| 3---------------- 3 3----------| 3---------------- 3 3----------|
E|------ 0-- 3------------ 0------|------ 0---- 3---------- 0------|
http://classicalguitartablature.blogspot.com/
http://classicalguitartablature.blogspot.com/
E|--------------------------------| 3---------- 5-- 3------------ 0|
B|------ 3------ 3----------------| 3---------- 3-- 3-- 6 5-- 3-- 1|
G|------ 0------ 0-- 5 4----------| 0---------- 0-- 0------------ 0|
D|------ 0------ 0----------------|--------------------------------|
A|------ 2---- 5---------- 2------|------ 2---- 5---------- 2-- 5--|
E| 3---------------- 3-- 3------ 3|------------------ 3 3----------|
http://classicalguitartablature.blogspot.com/
E|------ 0------ 0-------------- 0|------ 0-- 1 3-------- 3------ 8|
B|------ 1------ 1-- 3 1-------- 1|---- 3 1-- 1 1-------- 1--------|
G|------ 0------ 0-- 0 0-------- 0|---- 0 0-------------- 0--------|
D|------------------ 2 2----------|--------------------------------|
A| 3---------------- 3 3----------| 3---------------- 3 3----------|
E|------ 0-- 3------------ 0------|------ 0---- 3---------- 0---- 8|
http://classicalguitartablature.blogspot.com/
E|------ 3---- 3 0----------------|-------- 8 8-- 8-------------- 0|
B|------------------------ 3-- 3--|------------ 8---------------- 1|
G|--------------------------------| 5------ 9-------------------- 0|
D|--------------------------------| 5------------------------------|
A|------------------------ 5------|--------10----------------------|
E|------ 3-------- 0--------------| 8-------------- 8--------------|
http://classicalguitartablature.blogspot.com/
E|-------- 0-------------------- 0|-------- 0 1-- 3----------------|
B|-------- 1-- 3-- 1------------ 1|---- 3-- 1 1-- 1----------------|
G|-------- 0-- 0-- 0------ 0---- 0|---- 0-- 0----------------------|
D|------------ 2-- 2--------------|---- 2--------------------------|
A| 3---------------- 3 3----------| 3---------------- 3 3----------|
E|------ 0-- 3------------ 0------|------ 0---- 3---------- 0------|
http://classicalguitartablature.blogspot.com/
E|------------------------------ 3|---------- 5-- 3----------------|
B| 3------ 3----------------------| 3-------- 3-- 3-- 6-- 5-- 3-- 1|
G| 0------ 0-- 5-- 4------ 0------| 0-------- 0---- 0 0-- 0-- 0-- 0|
D| 0------ 0----------------------|---------------------- 0-- 0----|
A|------ 2---- 5---------- 2------|------ 2---- 5---------- 2-- 5--|
E| 3---------------- 3-- 3------ 3|------------------ 3 3----------|
http://classicalguitartablature.blogspot.com/
E| 0---- 0---------------------- 0|-------- 0 1-- 3------ 3-- 3-- 8|
B|------ 1-- 3-- 1-------------- 1|---- 3-- 1 1-- 1----------------|
G|------ 0-- 0-- 0-------- 0---- 0|---- 0-- 0---- 0----------------|
D|---------- 2-- 2----------------|---- 2--------------------------|
A| 3---------------- 3 3----------| 3---------------- 3 3----------|
E|------ 0-- 3------------ 0------|------ 0---- 3---------- 0---- 8|
http://classicalguitartablature.blogspot.com/
E|------ 3---- 3 0----------------|-------- 8 8-- 8----------------|
B|------------------------ 3-- 3--|------------ 8---------------- 1|
G|--------------------------------| 5------ 9-------------------- 0|
D|--------------------------------| 5---------------------------- 2|
A|------------------------ 5------|--------10-------------------- 3|
E|------ 3-------- 0--------------| 8-------------- 8--------------|
http://classicalguitartablature.blogspot.com/
E|------ 0-------------- 0---- 0--|--------------------------------|
B|------ 1------ 1------ 1---- 1--|-- 3-------------------------- 3|
G|------ 0------ 0------ 0---- 0--|-- 0-------------------------- 0|
D|-------------- 2----------------|-- 0-------------------------- 0|
A|------------------ 3 3----------|------ 2---- 5---------- 2------|
E|---- 0------ 3---------- 0------| 3---------------- 3-- 3------ 3|
http://classicalguitartablature.blogspot.com/
E|-------------- 0-- 0------------|--------------------------------|
B|---- 3---- 3-- 3------ 3-- 3-- 1|------------------------------ 1|
G|---- 0---- 0-- 0-- 0-- 0-- 0-- 0|------------------------------ 0|
D|---- 0---- 0---------- 0-- 0-- 2|------------------------------ 2|
A|------ 2---- 5---------- 2-- 5 3|------------------ 3 3-------- 3|
E|------------------ 3 3----------|---- 0---- 3------------ 0-- 3--|
http://classicalguitartablature.blogspot.com/
E|------ 0-------------- 0---- 0--|--------------------------------|
B|------ 1------ 1------ 1---- 1--|-- 3-------------------------- 3|
G|------ 0------ 0------ 0---- 0--|-- 0-------------------------- 0|
D|-------------- 2----------------|-- 0-------------------------- 0|
A|------------------ 3 3----------|------ 2---- 5---------- 2------|
E|---- 0------ 3---------- 0------| 3---------------- 3-- 3------ 3|
http://classicalguitartablature.blogspot.com/
E|-------------- 0-- 0------------|--------------------------------|
B|---- 3---- 3-- 3------ 3-- 3-- 1|--------------------------------|
G|---- 0---- 0-- 0-- 0-- 0-- 0-- 0|--------------------------------|
D|---- 0---- 0---------- 0-- 0-- 2|--------------------------------|
A|------ 2---- 5---------- 2-- 5 3|------------------ 3 3----------|
E|------------------ 3 3----------|---- 0---- 3------------ 0-- 3--|
http://classicalguitartablature.blogspot.com/
E| 0------ 0------ 0------------ 0|-------- 0-- 1 3----------------|
B| 1------ 1------ 1-- 3 1------ 1|---- 3-- 1---- 1-------------- 3|
G| 0------ 0------ 0---- 0--------| 0-- 0-- 0---- 0-------------- 0|
D|-------------------- 2 2--------|---- 2------------------------ 0|
A| 3---------------- 3 3----------| 3---------------- 3 3----------|
E|------ 0-- 3------------ 0------|------ 0---- 3---------- 0------|
http://classicalguitartablature.blogspot.com/
E|--------------------------------| 3---------- 5-- 3------------ 0|
B|------ 3------ 3----------------| 3---------- 3-- 3-- 6 5-- 3-- 1|
G|------ 0------ 0-- 5 4----------| 0---------- 0-- 0------------ 0|
D|------ 0------ 0----------------|--------------------------------|
A|------ 2---- 5---------- 2------|------ 2---- 5---------- 2-- 5--|
E| 3---------------- 3-- 3------ 3|------------------ 3 3----------|
http://classicalguitartablature.blogspot.com/
E|------ 0------ 0-------------- 0|------ 0-- 1 3-------- 3------ 8|
B|------ 1------ 1-- 3 1-------- 1|---- 3 1-- 1 1-------- 1--------|
G|------ 0------ 0-- 0 0-------- 0|---- 0 0-------------- 0--------|
D|------------------ 2 2----------|--------------------------------|
A| 3---------------- 3 3----------| 3---------------- 3 3----------|
E|------ 0-- 3------------ 0------|------ 0---- 3---------- 0---- 8|
http://classicalguitartablature.blogspot.com/
E|------ 3---- 3 0----------------|-------- 8 8-- 8-------------- 0|
B|------------------------ 3-- 3--|------------ 8---------------- 1|
G|--------------------------------| 5------ 9-------------------- 0|
D|--------------------------------| 5------------------------------|
A|------------------------ 5------|--------10----------------------|
E|------ 3-------- 0--------------| 8-------------- 8--------------|
http://classicalguitartablature.blogspot.com/
E|-------- 0-------------------- 0|-------- 0 1-- 3----------------|
B|-------- 1-- 3-- 1------------ 1|---- 3-- 1 1-- 1----------------|
G|-------- 0-- 0-- 0------ 0---- 0|---- 0-- 0----------------------|
D|------------ 2-- 2--------------|---- 2--------------------------|
A| 3---------------- 3 3----------| 3---------------- 3 3----------|
E|------ 0-- 3------------ 0------|------ 0---- 3---------- 0------|
http://classicalguitartablature.blogspot.com/
E|------------------------------ 3|---------- 5-- 3----------------|
B| 3------ 3----------------------| 3-------- 3-- 3-- 6-- 5-- 3-- 1|
G| 0------ 0-- 5-- 4------ 0------| 0-------- 0---- 0 0-- 0-- 0-- 0|
D| 0------ 0----------------------|---------------------- 0-- 0----|
A|------ 2---- 5---------- 2------|------ 2---- 5---------- 2-- 5--|
E| 3---------------- 3-- 3------ 3|------------------ 3 3----------|
http://classicalguitartablature.blogspot.com/
E| 0---- 0---------------------- 0|-------- 0 1-- 3------ 3-- 3-- 8|
B|------ 1-- 3-- 1-------------- 1|---- 3-- 1 1-- 1----------------|
G|------ 0-- 0-- 0-------- 0---- 0|---- 0-- 0---- 0----------------|
D|---------- 2-- 2----------------|---- 2--------------------------|
A| 3---------------- 3 3----------| 3---------------- 3 3----------|
E|------ 0-- 3------------ 0------|------ 0---- 3---------- 0---- 8|
http://classicalguitartablature.blogspot.com/
E|------ 3---- 3 0----------------|-------- 8 8-- 8----------------|
B|------------------------ 3-- 3--|------------ 8------------------|
G|--------------------------------| 5------ 9----------------------|
D|--------------------------------| 5------------------------------|
A|------------------------ 5------|--------10----------------------|
E|------ 3-------- 0--------------| 8-------------- 8--------------|
http://classicalguitartablature.blogspot.com/
0 com

Sunny Came Home (BASIC)

Shawn Colvin's tune fingerstyle chord melody guitar BASIC arrangement played in the key of Bm.

Sunny Came Home-Shawn Colvin-BASIC ARRANGEMENT played in the key of G.
http://classicalguitartablature.blogspot.com/
E|--------------------------------|--------------------------------|
B| 3 3---- 2---- 2-- 2------ 2----| 3-- 3-- 2---- 2-- 2------ 2----|
G| 4 4------ 4---- 4---- 4--------| 4-- 4---- 4---- 4---- 4--------|
D| 4 4----------------------------| 4-- 4--------------------------|
A| 2------------------------------| 2------------------------------|
E|--------------------------------|--------------------------------|
http://classicalguitartablature.blogspot.com/
E|--------------------------------|--------------------------------|
B|---------- 2 3-- 5------ 3-- 2--| 0------------------------------|
G|------ 4-------- 2------ 2------| 2 2------------------ 2--------|
D|---------------- 2------ 2------| 0------ 0------------ 4--------|
A| 2 2------------ 0-- 0----------|--------------------------------|
E|--------------------------------| 3-- 3-------- 3 2-- 2---- 2----|
http://classicalguitartablature.blogspot.com/
http://classicalguitartablature.blogspot.com/
E|--------------------------------|--------------------------------|
B|---------- 2 3-- 5------ 3-- 2 0|--------------------------------|
G|------ 4-------- 2------ 2---- 2|-- 2-- 2-------------- 2--------|
D|---------------- 2------ 2---- 4|------ 4-------------- 2--------|
A| 2 2------------ 0-- 0-------- 5|-- 5-------- 5------------------|
E|--------------------------------|-------------- 5-- 5-------- 5--|
http://classicalguitartablature.blogspot.com/
E|--------------------------------|--------------------------------|
B|---------- 2-- 5------ 3---- 2 0|--------------------------------|
G|------ 4-------- 2---- 2------ 2| 2---- 2-------------- 2--------|
D|------------------------------ 0|------ 0-------------- 4--------|
A|---------------- 0 0------------|--------------------------------|
E| 4-- 4------------------------ 3|-- 3-------- 3-- 2-- 2------ 2--|
http://classicalguitartablature.blogspot.com/
E|--------------------------------|--------------------------------|
B|------ 3-- 2 3 5------ 3---- 2 2|-- 3-------- 3------ 3-- 3-- 3--|
G|---------------------- 2---- 2 0|-- 0-------- 0------ 0-- 0-- 2--|
D|---------------------- 4---- 4 0|-- 0-------- 0------ 0-- 0------|
A|---------------- 2-- 2----------|------------------------------ 5|
E| 0-- 0------------------------ 3|---- 3-- 3-- 3-- 3-- 3-- 3------|
http://classicalguitartablature.blogspot.com/
E|-- 5-------------- 5------------|-- 5-- 3-- 2---- 0--------------|
B|-- 3------ 2------ 2------ 0----|------ 0-- 0------ 3-- 3-- 3----|
G|---------- 2------ 2------ 0----|---------- 0-------------- 2----|
D|---------- 2-------------- 0----|--------------------------------|
A|--------------------------------|------------------------------ 5|
E|------------ 5-- 5------------ 0|-------------- 3----------------|
http://classicalguitartablature.blogspot.com/
E|-- 5-------------- 5------------|--------------------------------|
B|---------- 2------ 2------ 0----|------------------ 3-- 3---- 3--|
G|---------- 2------ 2------------| 2 0-------------- 0-- 0---- 2--|
D|---------- 2--------------------|---------- 0---------- 0--------|
A|-- 5----------------------------|------------------------------ 5|
E|---------- 5-- 5-------------- 0|------ 2------ 3-------- 3------|
http://classicalguitartablature.blogspot.com/
E|-- 5-------------- 5------------|-- 5-- 3-- 2---- 0--------------|
B|-- 3------ 2------ 2------ 0----|------ 0-- 0------ 3-- 3-- 5----|
G|---------- 2------ 2------ 0----|---------- 0-------------- 4----|
D|---------- 2-------------- 0----|-------------------------- 4----|
A|--------------------------------|--------------------------------|
E|------------ 5-- 5------------ 0|-------------- 3-------------- 4|
http://classicalguitartablature.blogspot.com/
E|--------------------------------|--------------------------------|
B|---------------------- 0-- 2 3--| 0------ 0-------------- 0------|
G|-------------------- 2----------| 0------ 0------------------ 2--|
D|------------------ 2------------|---- 0-------------- 0------ 2--|
A|-------------- 0----------------|--------------------------------|
E|-- 4------ 4--------------------| 3---------- 3-- 3--------------|
http://classicalguitartablature.blogspot.com/
E|--------------------------------|--------------------------------|
B|---- 2--------------------------|--------------------------------|
G|---- 2---- 4-------------- 2----|-- 0-------------- 2------ 2-- 2|
D|---------- 4------ 4------ 0----|---------- 4------ 0---------- 2|
A| 4------------------------------|------------------------------ 4|
E|---------------- 2------------ 3|---------- 3-- 3----------------|
http://classicalguitartablature.blogspot.com/
E|--------------------------------|--------------------------------|
B|-- 2----------------------------|-- 2------ 3---- 2 0------------|
G|---------- 4-------------- 2----|---------- 2---- 0---- 2-- 2----|
D|---------- 4------ 4------------|------------ 0------------ 2----|
A|--------------------------------|--------------------------------|
E|---------- 2-- 2-------------- 3|------------ 3-- 3--------------|
http://classicalguitartablature.blogspot.com/
E|--------------------------------|--------------------------------|
B|-- 2----------------------------|--------------------------------|
G|---------- 4-------------- 2----|-- 0-------------- 2------ 2----|
D|---------- 4------ 4------ 0----|---------- 4------ 0------------|
A| 4-- 4--------------------------|------------------------------ 7|
E|------------ 2-- 2------------ 3|---------- 3-- 3----------------|
http://classicalguitartablature.blogspot.com/
E|--------------------------------|--------------------------------|
B|-- 2------ 3------ 2------ 0----|-- 2------ 3------ 3-- 3---- 3--|
G|-- 2------ 2------ 2------ 0----|-- 0------ 0------ 0-------- 2--|
D|------------------ 2------ 0----|---------- 0--------------------|
A|------ 4-------------- 4--------|------------------------------ 5|
E|-------------- 2-------------- 3|-- 3-- 3---- 3 3-- 3-- 3--------|
http://classicalguitartablature.blogspot.com/
E|-- 5-------------- 5------------|-- 5-- 3-- 2---- 0--------------|
B|-- 3------ 2------ 2------ 0----|------ 0-- 0------ 3-- 3-- 3----|
G|---------- 2------ 2------ 0----|---------- 0-------------- 2----|
D|---------- 2-------------- 0----|--------------------------------|
A|--------------------------------|------------------------------ 5|
E|------------ 5-- 5------------ 0|-------------- 3----------------|
http://classicalguitartablature.blogspot.com/
E|-- 5-------------- 5------------|--------------------------------|
B|---------- 2------ 2------ 0----|------------------ 3-- 3---- 3--|
G|---------- 2------ 2------------| 2 0-------------- 0-- 0---- 2--|
D|---------- 2--------------------|---------- 0---------- 0--------|
A|-- 5----------------------------|------------------------------ 5|
E|---------- 5-- 5-------------- 0|------ 2------ 3-------- 3------|
http://classicalguitartablature.blogspot.com/
E|-- 5-------------- 5------------|-- 5-- 3-- 2---- 0--------------|
B|-- 3------ 2------ 2------ 0----|------ 0-- 0------ 3-- 3-- 5----|
G|---------- 2------ 2------ 0----|---------- 0-------------- 4----|
D|---------- 2-------------- 0----|-------------------------- 4----|
A|--------------------------------|--------------------------------|
E|------------ 5-- 5------------ 0|-------------- 3-------------- 4|
http://classicalguitartablature.blogspot.com/
E|--------------------------------|--------------------------------|
B|---------------------- 0-- 2 3 0|------ 0---- 0-------- 0--------|
G|-------------------- 2-------- 0|------ 0---- 0-- 0---- 0------ 4|
D|------------------ 2---------- 0|------ 0---- 0-- 0---- 0------ 4|
A|-------------- 0----------------|--------------------------------|
E|-- 4------ 4------------------ 3|------------------ 3------ 3-- 4|
http://classicalguitartablature.blogspot.com/
E|--------------------------------|--------------------------------|
B|------------------------ 2-- 3 3|-- 3-- 2---- 2---- 2-------- 2--|
G|-------- 4-- 4-- 4---- 4------ 4|-- 4------ 4---- 4------ 4------|
D|-------- 4-- 4-- 4------------ 4|-- 4----------------------------|
A|--------------------------------| 2------------------------------|
E|------------------ 4------------|--------------------------------|
http://classicalguitartablature.blogspot.com/
E|--------------------------------|--------------------------------|
B| 3-- 3-- 2---- 2---- 2---- 2-- 3|-- 3-- 2-- 0-- 2 0 2-------- 2--|
G| 2-- 2---- 4---- 4------ 4---- 0|-- 0-- 0---------- 0---- 0-- 0--|
D| 2-- 2--------------------------| 0-- 0 0------------------------|
A| 0------------------------------|--------------------------------|
E|--------------------------------| 3------------------------------|
http://classicalguitartablature.blogspot.com/
E|--------------------------------|--------------------------------|
B| 3-- 3-- 2-- 2---- 2-------- 2--|------ 3------------------------|
G| 2-- 2---- 4---- 4------ 4------|------ 2------------------------|
D| 2-- 2--------------------------|---- 4--------------------------|
A| 0------------------------------|---- 2--------------------------|
E|--------------------------------|--------------------------------|
http://classicalguitartablature.blogspot.com/
0 com

Jar Of Hearts (BASIC)

Christina Perri's tune fingerstyle chord melody guitar BASIC arrangement played in the key of Cm.

Jar of Hearts-Christina Perri-BASIC ARRANGEMENT played in the key of Cm.
http://classicalguitartablature.blogspot.com/
E|--------------------------------|--------------------------------|
B|------------------------ 3-- 4--|--------------------------------|
G| 5-------------- 5-- 5----------|---------------------------- 3--|
D| 5------ 5-- 5------------------|-- 5---- 3------ 5---- 5--------|
A| 3------------------------------| 6---------- 6------------------|
E|--------------------------------|--------------------------------|
http://classicalguitartablature.blogspot.com/
E|--------------------------------|--------------------------------|
B|--------------------------------|---------------------------- 1--|
G|-- 3----------------------------|------------------------ 1------|
D|---- 3 3-- 3---- 3-- 3-- 5-- 6 3|-- 1 3-------------- 3----------|
A|--------------------------------|--------------------------------|
E| 6------------------------------| 1------------------------------|
http://classicalguitartablature.blogspot.com/
http://classicalguitartablature.blogspot.com/
E|--------------------------------|--------------------------------|
B|---------------------- 3-- 4----|--------------------------------|
G|---- 5-------- 5-- 5------------|------------------ 3------ 3----|
D|-------- 5-- 5------------------|-- 5---- 3---- 5------ 5--------|
A| 3---------------------------- 6|------------ 6------------------|
E|--------------------------------|--------------------------------|
http://classicalguitartablature.blogspot.com/
E|--------------------------------|--------------------------------|
B|--------------------------------|-------- 1------ 1--------------|
G|-- 3-------------------------- 1|-------- 1------ 1---- 1-- 3----|
D|---- 3 3---- 3 3---- 3 5 6------|-- 1-------- 1------ 1----------|
A|--------------------------------|--------------------------------|
E| 6---------------------------- 4|-------------------------- 3----|
http://classicalguitartablature.blogspot.com/
E|--------------------------------|--------------------------------|
B|-------- 1 3-- 4-------- 4---- 4|------ 4------ 3------ 3--------|
G|-------- 1-------------- 1---- 3|------ 3-------------- 3--------|
D|---- 1---------- 1-- 1-------- 5|-- 5-------------- 3------------|
A|--------------------------------| 3------------------------------|
E| 1-------------- 4---------- 4--|---------------- 6-------- 6----|
http://classicalguitartablature.blogspot.com/
E|--------------------------------|--------------------------------|
B|------ 1-- 3---- 4-- 4-- 4-- 4--|-------------- 3----------------|
G|---------- 1---- 1-- 1-- 1-- 3--|-- 3-------- 3-- 3---- 3--------|
D|---- 1 1---- 1-- 1-- 1-- 1-- 3--|------ 3------------ 3----------|
A|--------------------------------|------------------------------ 6|
E| 1-------------- 4--------------| 6-------------- 6---------- 6--|
http://classicalguitartablature.blogspot.com/
E|--------------------------------|--------------------------------|
B|------ 4---------------- 4-- 4 6|------ 6-------- 6 6 6 4-- 3-- 4|
G|------ 3-- 3-- 3 3 3------------|------ 3-------- 3 3 3----------|
D|-- 5---------- 5 5 5------------|---- 3-------- 3-- 3 3----------|
A|-------------- 6----------------|------------------------------ 3|
E|--------------------------------| 6---------- 6 6----------------|
http://classicalguitartablature.blogspot.com/
E|--------------------------------|--------------------------------|
B| 3------------ 4 4 4-- 6-- 4 4--|------------ 4-- 4 4 4 6-- 4 4--|
G|-- 5---------- 5 5 5------------|------ 1-------- 4 4 4 5--------|
D|------ 5------ 5 5 5------------|-- 1------------ 3 3 3----------|
A|---------- 3-- 3----------------|--------------------------------|
E|--------------------------------| 4-------------- 4--------------|
http://classicalguitartablature.blogspot.com/
E|--------------------------------|--------------------------------|
B|------ 4---------------- 4 4-- 6|------ 6------ 6 6 6-- 4-- 3 4--|
G|------------ 3-- 3 3------------|------ 3-------- 3 3-- 3--------|
D|-- 5------------ 5 5-------- 3--|---- 3------ 3---- 3-- 3--------|
A| 6-------------- 6--------------|------------------------------ 3|
E|--------------------------------| 6-------- 6-- 6----------------|
http://classicalguitartablature.blogspot.com/
E|--------------------------------|--------------------------------|
B| 3------------ 4 4 4-- 6-- 4 4--|-------- 4------ 4 4 4-- 6-- 4--|
G|-- 5---------- 5 5 5------------|-------- 1------ 4 4 4----------|
D|------ 5-------- 5 5------------|-- 1------------ 3 3 3----------|
A|------------ 3-- 3--------------|--------------------------------|
E|--------------------------------| 4---------- 4-- 4--------------|
http://classicalguitartablature.blogspot.com/
E|--------------------------------| 3---- 3-- 4---- 3---- 3-- 4----|
B| 4------ 4------ 4------ 4------| 4---- 4-- 4---- 0---- 0-- 0----|
G| 3------ 3------ 3------ 3------|-- 5-------------- 0------------|
D|---- 5------ 5------ 5------ 5--|--------------------------------|
A| 6------------------------------| 3-------- 3---- 2---------- 2--|
E|--------------------------------|--------------------------------|
http://classicalguitartablature.blogspot.com/
E| 3---- 3-- 4-- 3----------------| 3---- 3-- 4---- 3---- 3-- 4----|
B| 4------ 4 4-- 6-- 6-- 4--------| 4---- 4-- 4---- 0---- 0-- 0----|
G| 3------------ 5-- 5---- 5------|-- 5-------------- 0------------|
D|---- 5------------ 5------------|--------------------------------|
A|-------------- 0----------------| 3-------- 3---- 2---------- 2--|
E| 6-------- 6--------------------|--------------------------------|
http://classicalguitartablature.blogspot.com/
E| 3---- 3-- 4-- 3----------------| 3---- 3-- 4---- 3---- 3-- 4----|
B| 4------ 4 4-- 6-- 6-- 4--------| 4---- 4-- 4---- 0---- 0-- 0----|
G| 3------------ 5-- 5---- 5------|-- 5-------------- 0------------|
D|---- 5------------ 5------------|--------------------------------|
A|-------------- 0----------------| 3-------- 3---- 2---------- 2--|
E| 6-------- 6--------------------|--------------------------------|
http://classicalguitartablature.blogspot.com/
E| 3---- 3-- 4-- 3-------------- 8|--------------------------------|
B| 4------ 4 4-- 6-- 6-- 4--------|------ 8-------- 6-- 8------ 9 8|
G| 3------------ 5-- 5---- 5---- 8|------ 8-------- 7-- 7----------|
D|---- 5------------ 5------------|-- 8---------- 6-------- 6------|
A|-------------- 0----------------|--------------------------------|
E| 6-------- 6------------------ 8|---------- 8-- 7---------- 7----|
http://classicalguitartablature.blogspot.com/
E|--------------------------------|---------------------- 4 3 1----|
B|------ 8-- 6-- 4-------- 4---- 1|-- 3-- 4 1------------------ 4--|
G|------------------ 5------ 5-- 1|-- 1-- 1---- 1------------------|
D|-- 8------------------ 5--------| 1 1-- 1---- 1------ 1----------|
A|--------------------------------|--------------------------------|
E| 6-------------- 5---------- 5--| 4-------------- 4--------------|
http://classicalguitartablature.blogspot.com/
E|-- 3------ 4-- 3----------------|--------------------------------|
B| 6 6------ 3-- 3------ 6-- 4----|-------- 4-------------- 4-- 4 6|
G| 4---------------------- 4------|------------ 3 3 3 3---- 3------|
D|------ 3------------ 3----------|---- 5-------- 5 5 5-------- 3--|
A|--------------------------------| 6------------ 6----------------|
E| 3------------ 3----------------|--------------------------------|
http://classicalguitartablature.blogspot.com/
E|--------------------------------|--------------------------------|
B|------ 6------ 6 6 6---- 4 3-- 4| 3------------ 4 4 4-- 6-- 4 4--|
G|------ 3---- 3 3 3 3-- 3--------|-- 5---------- 5 5 5------------|
D|---- 3---- 3-- 3 3 3-- 3--------|------ 5------ 5 5 5------------|
A|------------------------------ 3|---------- 3-- 3----------------|
E| 6------------ 6----------------|--------------------------------|
http://classicalguitartablature.blogspot.com/
E|--------------------------------|--------------------------------|
B|------------ 4-- 4 4 4 6-- 4 4--|------ 4---------------- 4 4-- 6|
G|------ 1-------- 4 4 4 5--------|------------ 3-- 3 3------------|
D|-- 1------------ 3 3 3----------|-- 5------------ 5 5-------- 3--|
A|--------------------------------| 6-------------- 6--------------|
E| 4-------------- 4--------------|--------------------------------|
http://classicalguitartablature.blogspot.com/
E|--------------------------------|--------------------------------|
B|------ 6------ 6 6 6-- 4-- 3 4--| 3------------ 4 4 4-- 6-- 4 4--|
G|------ 3-------- 3 3-- 3--------|-- 5---------- 5 5 5------------|
D|---- 3------ 3---- 3-- 3--------|------ 5-------- 5 5------------|
A|------------------------------ 3|------------ 3-- 3--------------|
E| 6-------- 6-- 6----------------|--------------------------------|
http://classicalguitartablature.blogspot.com/
E|--------------------------------|------------------------------ 4|
B|-------- 4------ 4 4 4-- 6-- 4--| 4------ 4------ 4------ 4---- 6|
G|-------- 1------ 4 4 4----------| 3------ 3------ 3------ 3---- 4|
D|-- 1------------ 3 3 3----------|---- 5------ 5------ 5------ 5--|
A|--------------------------------| 6------------------------------|
E| 4---------- 4-- 4--------------|--------------------------------|
http://classicalguitartablature.blogspot.com/
E|---- 4---- 4-- 4-------- 4-- 6--| 3---------------------------- 4|
B|---- 6---- 6-- 6-------- 6 6----| 4------ 4-------------- 4---- 6|
G|-------- 4-------- 4------------| 3------ 3-------------- 3---- 4|
D|--------------------------------|---- 5-------------- 5----------|
A|--------------------------------| 6---------- 6-- 6-------- 6----|
E| 4------------ 4----------------|--------------------------------|
http://classicalguitartablature.blogspot.com/
E|-- 4------ 4-- 4-------- 4-- 6--|---------------------------- 3--|
B|-- 6-------------------- 6-- 6--|---------------------------- 4--|
G|-- 4-- 4-- 4-- 4-- 4------------|---------------------------- 3--|
D|--------------------------------|--------------------------------|
A|--------------------------------|-------------------------- 6----|
E| 4-------- 4-- 4----------------|--------------------------------|
http://classicalguitartablature.blogspot.com/
0 com

Rivers Of Babylon (BASIC)

Boney M's tune fingerstyle chord melody guitar BASIC arrangement played in the key of C.

Rivers Of Babylon-Boney M-BASIC ARRANGEMENT played in the key of C.
http://classicalguitartablature.blogspot.com/
E|-- 0------ 0------ 0------ 0----|-- 0-------------------------- 0|
B| 1---- 1------ 1------ 1------ 1|-------------- 1-- 1-- 3------ 1|
G| 0---------------------------- 0|------ 0-- 0--------------------|
D| 2------------------------------|--------------------------------|
A| 3---------------------------- 3|------------------------------ 3|
E|--------------------------------|--------------------------------|
http://classicalguitartablature.blogspot.com/
E|------ 0-- 0--------------------|------------------------------ 0|
B|------ 1-- 1--------------------|-------------- 1------ 3------ 1|
G|---------------------- 0--------|------ 0------ 0----------------|
D|-- 2---------------- 2---- 2----|---- 2---- 2------ 2------ 2----|
A|---------------- 3--------------| 3------------ 3-------------- 3|
E|--------------------------------|--------------------------------|
http://classicalguitartablature.blogspot.com/
http://classicalguitartablature.blogspot.com/
E|--------------------------------|------ 0------ 1------ 0--------|
B|--------------------------------|-------------- 1------ 1------ 3|
G|------ 0-------------- 0--------|--------------------------------|
D|---- 2---- 2------ 2------ 2----|-- 2------ 2------ 2------ 2----|
A|-------------- 3-------------- 3|-------------- 3----------------|
E|--------------------------------|------------------------------ 3|
http://classicalguitartablature.blogspot.com/
E|--------------------------------|---------------------- 0--------|
B|------------ 3------------ 3----|-- 3-- 3-- 3-- 3-------------- 3|
G|------ 0-------------- 0--------|-- 0-- 0-- 0-- 0----------------|
D|-- 0---------------- 0----------|------------------ 0------ 0----|
A|--------------------------------|------------------------------ 3|
E|---------------- 3--------------| 3------------ 3----------------|
http://classicalguitartablature.blogspot.com/
E|--------------------------------|------------------------------ 0|
B|------ 1-- 1---------------- 1--|-------------- 1-- 1-- 3------ 1|
G|------ 0-- 0---------- 0--------|-------- 0 0-- 0-- 0-- 0--------|
D|-- 2-------------- 2------------|---- 2-------------------- 2----|
A|---------------- 3--------------| 3------------ 3-------------- 3|
E|--------------------------------|--------------------------------|
http://classicalguitartablature.blogspot.com/
E|------ 0-- 0--------------------|------------------------------ 0|
B|------ 1-- 1--------------------|-------------- 1------ 3------ 1|
G|---------------------- 0--------|------ 0------ 0----------------|
D|-- 2---------------- 2---- 2----|---- 2---- 2------ 2------ 2----|
A|---------------- 3--------------| 3------------ 3-------------- 3|
E|--------------------------------|--------------------------------|
http://classicalguitartablature.blogspot.com/
E|--------------------------------|------ 0------ 1------ 0--------|
B|--------------------------------|-------------- 1------ 1------ 3|
G|------ 0-------------- 0--------|--------------------------------|
D|---- 2---- 2------ 2------ 2----|-- 2------ 2------ 2------ 2----|
A|-------------- 3-------------- 3|-------------- 3----------------|
E|--------------------------------|------------------------------ 3|
http://classicalguitartablature.blogspot.com/
E|--------------------------------|---------------------- 0--------|
B|------------ 3------------ 3----|-- 3-- 3-- 3-- 3-------------- 3|
G|------ 0-------------- 0--------|-- 0-- 0-- 0-- 0-------------- 0|
D|-- 0---------------- 0----------|------------------ 0------ 0----|
A|--------------------------------|------------------------------ 3|
E|---------------- 3--------------| 3------------ 3----------------|
http://classicalguitartablature.blogspot.com/
E|--------------------------------|---------- 8-- 5-------------- 0|
B|------ 1---- 1-------------- 1--|------ 8------ 5-- 8-- 8------ 1|
G|------ 0---- 0---------- 0------|------ 5---------- 5-- 5------ 0|
D|-- 2---------------- 2----------|---- 5---------------------- 5--|
A|---------------- 3--------------|------------------------------ 3|
E|--------------------------------| 8-------------- 8--------------|
http://classicalguitartablature.blogspot.com/
E|-- 0-- 0------ 0-------------- 0|-- 0------ 0---------- 0--------|
B|-- 1-- 1-- 3-- 1------ 3------ 1|-- 1---------------------- 3-- 1|
G|-- 0-- 0-- 0------------------ 0|-- 0-- 0---------------------- 2|
D|---------- 2------ 2------ 2----|------ 2---------- 2---------- 3|
A|-------------- 3-------------- 3|-------------- 3----------------|
E|--------------------------------|------------------------------ 1|
http://classicalguitartablature.blogspot.com/
E|--------------------------------|--------------------------------|
B|-- 1------ 3---- 1---------- 1--|---------- 1-------- 1------ 1--|
G|-- 2------------ 2---- 2--------|------ 0-------------- 0--------|
D|------ 3---------- 3------------|---- 2--------------------------|
A|--------------------------------| 3-------------- 3------------ 3|
E|---------------- 1--------------|--------------------------------|
http://classicalguitartablature.blogspot.com/
E|-------------------------- 0----|-- 0-------------- 1------ 0----|
B|-- 1-------- 1---- 3------ 1----|------------------ 1---------- 3|
G|-- 0-------- 0---- 0------------|------------ 0-------- 0------ 0|
D|------ 2---------------- 2------|------ 2------------------------|
A|-------------- 3-------------- 3|-------------- 3----------------|
E|--------------------------------|--------------------------------|
http://classicalguitartablature.blogspot.com/
E|--------------------------------|--------------------------------|
B|---------- 3------ 1-------- 1--|---------- 1-------------- 1----|
G|------ 0-------------------- 0--|------ 0-------------- 0--------|
D|---- 0---------------- 0-- 2----|-- 2-------------- 2------------|
A|------------------------------ 3|-------------- 3----------------|
E| 3------------ 3----------------|--------------------------------|
http://classicalguitartablature.blogspot.com/
E|---------- 8-- 5-------------- 0|-- 0-- 0------ 0-------------- 0|
B|------ 8-- 5-- 5-- 8-- 8------ 1|-- 1-- 1-- 3-- 1------ 3------ 1|
G|------ 5------ 5-- 5-- 5------ 0|-- 0-- 0-- 0------------------ 0|
D|-- 5-------------- 5-- 5---- 5--|---------- 2------ 2------ 2----|
A|------------------------------ 3|-------------- 3-------------- 3|
E| 8-------------- 8--------------|--------------------------------|
http://classicalguitartablature.blogspot.com/
E|-- 0------ 0---------- 0--------|--------------------------------|
B|-- 1---------------------- 3-- 1|-- 1------ 3---- 1---------- 1--|
G|-- 0-- 0---------------------- 2|-- 2------------ 2---- 2--------|
D|------ 2---------- 2---------- 3|------ 3---------- 3------------|
A|-------------- 3----------------|--------------------------------|
E|------------------------------ 1|---------------- 1--------------|
http://classicalguitartablature.blogspot.com/
E|--------------------------------|-------------------------- 0----|
B|---------- 1-------- 1------ 1--|-- 1-------- 1---- 3------ 1----|
G|------ 0-------------- 0--------|-- 0-------- 0---- 0------------|
D|---- 2--------------------------|------ 2---------------- 2------|
A| 3-------------- 3------------ 3|-------------- 3-------------- 3|
E|--------------------------------|--------------------------------|
http://classicalguitartablature.blogspot.com/
E|-- 0-------------- 1------ 0----|--------------------------------|
B|------------------ 1---------- 3|---------- 3------ 1-------- 1--|
G|------------ 0-------- 0------ 0|------ 0-------------------- 0--|
D|------ 2------------------------|---- 0---------------- 0-- 2----|
A|-------------- 3----------------|------------------------------ 3|
E|--------------------------------| 3------------ 3----------------|
http://classicalguitartablature.blogspot.com/
E|--------------------------------|-------------- 3------ 3------ 0|
B|---------- 1-------------- 1----|---------- 1-- 1------ 1------ 1|
G|------ 0-------------- 0--------|------ 0------------------------|
D|-- 2-------------- 2------------|-- 2-------------- 2------ 2----|
A|-------------- 3-------------- 3|-------------- 3----------------|
E|--------------------------------|--------------------------------|
http://classicalguitartablature.blogspot.com/
E|-------------- 1------ 0--------|---------- 3------ 3-- 3------ 0|
B|---------- 1-- 1---------- 1----| 3---------------- 3-- 3------ 1|
G|------ 0------------------------|-------- 0----------------------|
D|-- 2---------------- 2----------|-- 0----------------------------|
A| 3------------ 3----------------|------------------------------ 3|
E|--------------------------------| 3-------------- 3--------------|
http://classicalguitartablature.blogspot.com/
E|------ 0------ 1------ 0--------|-------------- 3------ 3------ 0|
B|------ 1------ 1------ 1-- 1-- 3|------------------------------ 1|
G|--------------------------------| 0------ 0----------------------|
D|-- 2------ 2------ 2------------|---- 0------------ 0-------- 0--|
A|-------------- 3----------------|------------------------------ 3|
E|--------------------------------| 3------------ 3----------------|
http://classicalguitartablature.blogspot.com/
E|------ 0---- 0 1------ 0--------|-------------- 0----------------|
B|------ 1-- 1-- 1------ 1-- 1-- 3|---------- 3-------------- 3----|
G|-- 0-------------- 0---------- 0|------ 0-------------- 0--------|
D|--------------------------------|---- 0------------ 0------------|
A|-------------- 3----------------|------------------------------ 3|
E|--------------------------------| 3------------ 3----------------|
http://classicalguitartablature.blogspot.com/
E|--------------------------------|-------------- 3------ 3------ 0|
B|-- 1----------------------------|---- 1---------------- 1------ 1|
G|---------- 0------------ 0------|------------ 0------------------|
D|------ 2------------ 2------ 2--|------ 2---------- 2-------- 2--|
A|---------------- 3------------ 3|-------------- 3----------------|
E|--------------------------------|--------------------------------|
http://classicalguitartablature.blogspot.com/
E|-------------- 1------ 0--------|---------- 3------ 3-- 3------ 0|
B|---------- 1-- 1---------- 1----| 3---------------- 3-- 3------ 1|
G|------ 0------------------------|-------- 0----------------------|
D|-- 2---------------- 2----------|-- 0----------------------------|
A| 3------------ 3----------------|------------------------------ 3|
E|--------------------------------| 3-------------- 3--------------|
http://classicalguitartablature.blogspot.com/
E|------ 0------ 1------ 0--------|-------------- 3------ 3------ 0|
B|------ 1------ 1------ 1-- 1-- 3|------------------------------ 1|
G|--------------------------------| 0------ 0----------------------|
D|-- 2------ 2------ 2------------|---- 0------------ 0-------- 0--|
A|-------------- 3----------------|------------------------------ 3|
E|--------------------------------| 3------------ 3----------------|
http://classicalguitartablature.blogspot.com/
E|------ 0---- 0 1------ 0--------|-------------- 0----------------|
B|------ 1-- 1-- 1------ 1-- 1-- 3|---------- 3-------------- 3----|
G|-- 0-------------- 0---------- 0|------ 0-------------- 0--------|
D|--------------------------------|---- 0------------ 0------------|
A|-------------- 3----------------|--------------------------------|
E|--------------------------------| 3------------ 3----------------|
http://classicalguitartablature.blogspot.com/
E|--------------------------------|------------------------------ 0|
B|-- 1----------------------------|-------------- 1-- 1-- 3------ 1|
G|------------ 0------ 0------ 0--|-------- 0-- 0------------------|
D|------ 2---------------- 2------|---- 2---------------------- 2--|
A| 3-------------- 3--------------| 3------------ 3-------------- 3|
E|--------------------------------|--------------------------------|
http://classicalguitartablature.blogspot.com/
E|------ 0-- 0--------------------|------------------------------ 0|
B|------ 1-- 1--------------------|-------------- 1------ 3------ 1|
G|---------------------- 0--------|------ 0------ 0----------------|
D|-- 2---------------- 2---- 2----|---- 2---- 2------ 2------ 2----|
A|---------------- 3--------------| 3------------ 3-------------- 3|
E|--------------------------------|--------------------------------|
http://classicalguitartablature.blogspot.com/
E|--------------------------------|------ 0------ 1------ 0--------|
B|--------------------------------|-------------- 1------ 1------ 3|
G|------ 0-------------- 0--------|--------------------------------|
D|---- 2---- 2------ 2------ 2----|-- 2------ 2------ 2------ 2----|
A|-------------- 3-------------- 3|-------------- 3----------------|
E|--------------------------------|------------------------------ 3|
http://classicalguitartablature.blogspot.com/
E|--------------------------------|---------------------- 0--------|
B|------------ 3------------ 3----|-- 3-- 3-- 3-- 3-------------- 3|
G|------ 0-------------- 0--------|-- 0-- 0-- 0-- 0----------------|
D|-- 0---------------- 0----------|------------------ 0------ 0----|
A|--------------------------------|------------------------------ 3|
E|---------------- 3--------------| 3------------ 3----------------|
http://classicalguitartablature.blogspot.com/
E|--------------------------------|------------------------------ 0|
B|------ 1-- 1---------------- 1--|-------------- 1-- 1-- 3------ 1|
G|------ 0-- 0---------- 0--------|-------- 0 0-- 0-- 0-- 0--------|
D|-- 2-------------- 2------------|---- 2-------------------- 2----|
A|---------------- 3--------------| 3------------ 3-------------- 3|
E|--------------------------------|--------------------------------|
http://classicalguitartablature.blogspot.com/
E|------ 0-- 0--------------------|------------------------------ 0|
B|------ 1-- 1--------------------|-------------- 1------ 3------ 1|
G|---------------------- 0--------|------ 0------ 0----------------|
D|-- 2---------------- 2---- 2----|---- 2---- 2------ 2------ 2----|
A|---------------- 3--------------| 3------------ 3-------------- 3|
E|--------------------------------|--------------------------------|
http://classicalguitartablature.blogspot.com/
E|--------------------------------|------ 0------ 1------ 0--------|
B|--------------------------------|-------------- 1------ 1------ 3|
G|------ 0-------------- 0--------|--------------------------------|
D|---- 2---- 2------ 2------ 2----|-- 2------ 2------ 2------ 2----|
A|-------------- 3-------------- 3|-------------- 3----------------|
E|--------------------------------|------------------------------ 3|
http://classicalguitartablature.blogspot.com/
E|--------------------------------|---------------------- 0--------|
B|------------ 3------------ 3----|-- 3-- 3-- 3-- 3----------------|
G|------ 0-------------- 0--------|-- 0-- 0-- 0-- 0----------------|
D|-- 0---------------- 0----------|------------------ 0------ 0----|
A|--------------------------------|--------------------------------|
E|---------------- 3--------------| 3------------ 3----------------|
http://classicalguitartablature.blogspot.com/
E|--------------------------------|------------------------------ 0|
B| 3 1---- 1-- 1------------ 1----|---- 3-- 3-- 3---- 3------------|
G| 0 0-- 0---- 0-------- 0--------|---- 0-- 0-- 0---- 0------------|
D| 2 2---- 2-- 2---- 2------------|------------------------ 0------|
A| 3------------ 3----------------|--------------------------------|
E|--------------------------------| 3---------------- 3------------|
http://classicalguitartablature.blogspot.com/
E|--------------------------------|--------------------------------|
B|------------ 3------------ 1----| 1------------------------------|
G|-------------- 0-------- 0------| 0------------------------------|
D|------ 0-- 2------ 2------------|--------------------------------|
A|---------- 3--------------------|--------------------------------|
E|--------------------------------|--------------------------------|
http://classicalguitartablature.blogspot.com/