To celebrate the anniversary, I am giving you (finally...) : iPhone LickByNeck !!!!!!

99 Red Balloons (BASIC)

Nena's tune fingerstyle chord melody guitar BASIC arrangement played in the key of E.

99 Red Ballons-Nena-BASIC Arrangement played in the key of E.
http://classicalguitartablature.blogspot.com/
E|-- 4-------- 4-- 2------------ 5|-- 5-- 5-- 5---- 5 4-- 2--------|
B| 7---- 5-------- 2 5-- 2------ 5|-- 5-- 5-- 5---- 2-------- 5----|
G| 4-------------- 2------------ 6|-- 6-- 6-- 6---- 2--------------|
D| 6------------------------------|--------------------------------|
A|--------------------------------|---------------- 2--------------|
E| 0-------------- 2--------------| 5------------------------------|
http://classicalguitartablature.blogspot.com/
E|-- 4------ 4---- 2--------------|--------------------------------|
B| 7------ 5------ 2 5---- 2------| 5---- 5-------- 5---- 5--------|
G| 4-------------- 2 2------------|-- 6------ 6---- 6 6------------|
D| 6---------------- 2------------| 7-------------- 7--------------|
A|------------------------------ 0|--------------------------------|
E| 0-------------- 2--------------|-------------- 7----------------|
http://classicalguitartablature.blogspot.com/
http://classicalguitartablature.blogspot.com/
E|-- 4------ 4---- 2--------------|--------------------------------|
B| 7------ 5------ 2 5---- 2------| 5---- 5-------- 5---- 5-- 7----|
G| 4-------------- 2 2------------|-- 6------ 6------ 6------------|
D| 6---------------- 2---------- 7|-------------- 7----------------|
A|------------------------------ 0|--------------------------------|
E| 0-------------- 2--------------|-------------- 7----------------|
http://classicalguitartablature.blogspot.com/
E|-- 4------ 4---- 2--------------| 5 5-- 5-- 5---- 5 4-- 4-- 2-- 0|
B| 7------ 5------ 2 5---- 2------| 2 2-- 2-- 2---- 2 2-- 2------ 0|
G| 4-------------- 2 2------------| 2 2-- 2-- 2---- 2 2-- 2--------|
D| 6---------------- 2------------|--------------------------------|
A|------------------------------ 0|-------------- 2-------------- 7|
E| 0-------------- 2--------------|--------------------------------|
http://classicalguitartablature.blogspot.com/
E|--------------------------------|------------------------------ 0|
B|--------------------------------|------------------------------ 0|
G|--------------------------------|--------------------------------|
D|--------------------------------|--------------------------------|
A|-- 7 4-- 7-- 4---------------- 7|-- 7---- 7-------------------- 7|
E|-------------- 0----------------|---- 9------ 9 0----------------|
http://classicalguitartablature.blogspot.com/
E|--------------------------------|--------------------------------|
B|--------------------------------|--------------------------------|
G|--------------------------------|--------------------------------|
D|--------------------------------|--------------------------------|
A|-- 7 4-- 7-- 4---------------- 7|-- 7---- 7-------------------- 7|
E|-------------- 0----------------|---- 9------ 9 0----------------|
http://classicalguitartablature.blogspot.com/
E|--------------------------------|--------------------------------|
B|--------------------------------|--------------------------------|
G|--------------------------------|--------------------------------|
D|--------------------------------|--------------------------------|
A| 7------ 7------ 911 9-------- 7|-- 7---- 7-------------------- 7|
E|---- 9------ 9--------12--12----|---- 9------ 9-- 7 7 7-- 7 9----|
http://classicalguitartablature.blogspot.com/
E|--------------------------------|--------------------------------|
B|--------------------------------|--------------------------------|
G|--------------------------------|--------------------------------|
D|--------------------------------|--------------------------------|
A| 7------ 7------ 911 9-------- 7|-- 7---- 7-------------------- 7|
E|---- 9------ 9--------12--12----|---- 9------ 9-- 7 7 7-- 7 9----|
http://classicalguitartablature.blogspot.com/
E|--------------------------------|--------------------------------|
B|--------------------------------|--------------------------------|
G|--------------------------------|--------------------------------|
D|--------------------------------|--------------------------------|
A| 7------ 7------ 911 9-------- 7|-- 7---- 7-------------------- 7|
E|---- 9------ 9--------12--12----|---- 9------ 9-- 7 7 7-- 7 9----|
http://classicalguitartablature.blogspot.com/
E|--------------------------------|--------------------------------|
B|--------------------------------|--------------------------------|
G|--------------------------------|--------------------------------|
D|--------------------------------|--------------------------------|
A| 7------ 7------ 911 9------ 7--| 7---- 7------------------------|
E|---- 9------ 9--------12--12----|-- 9------ 9---- 7 7-- 7-- 7-- 7|
http://classicalguitartablature.blogspot.com/
E|-- 4------ 4-- 2----------------| 5 5-- 5-- 5---- 5 4-- 2--------|
B| 7 7-- 5-- 5-- 2-- 5-- 2--------| 2 2-- 2-- 2---- 2 2-- 2-- 5----|
G| 4 4-- 4-- 4-- 2-- 2-- 2--------| 2 2------------ 2 2------ 2----|
D| 6---- 6---------- 2-- 2-- 2----|--------------------------------|
A|--------------------------------| 0-- 0-- 0-- 0-- 2-- 2-- 2-- 2--|
E| 0-- 0-- 0-- 0-- 2-- 2-- 2-- 2--|--------------------------------|
http://classicalguitartablature.blogspot.com/
E|-- 4------ 4-- 2----------------| 5 5-- 5-- 5---- 5 4-- 2--------|
B| 7 7-- 5-- 5-- 2-- 5-- 2--------| 2 2-- 2-- 2---- 2 2-- 2-- 5----|
G| 4 4-- 4------ 2-- 2-- 2--------| 2 2-- 2-------- 2 2------ 2----|
D| 6---- 6---------- 2-- 2-- 2----|--------------------------------|
A|--------------------------------| 0-- 0-- 0-- 0-- 2-- 2-- 2-- 2--|
E| 0-- 0-- 0-- 0-- 2-- 2-- 2-- 2--|--------------------------------|
http://classicalguitartablature.blogspot.com/
E| 0---- 0------------------------|-------------------------- 2----|
B| 2 2------ 2---- 5 2-- 5--------| 5 2-- 5-- 2---- 5 2-- 5--------|
G| 1 1------------ 2 2------------| 2 2-- 2-- 2---- 2 2-- 2--------|
D|---------------- 2 2------------| 2 2-- 2-------- 2 2-- 2---- 2--|
A|--------------------------------| 0-- 0-- 0-- 0-- 2-- 2-- 2-- 2--|
E| 0-- 0-- 0-- 0-- 2-- 2-- 2-- 2--|--------------------------------|
http://classicalguitartablature.blogspot.com/
E|-- 4------ 4-- 2----------------| 5 5-- 5-- 5---- 7--------------|
B| 7 7-- 5-- 5-- 2-- 5-- 2--------| 5 5-- 5-- 5---- 7-- 9 9-- 7----|
G| 4 4-- 4------ 2-- 2-- 2--------| 6 6------ 6---- 8-- 8 8-- 8----|
D| 6---- 6---------- 2-- 2-- 2----|-------------------- 9 9-- 9----|
A|--------------------------------| 0-- 0-- 0-- 0------------------|
E| 0-- 0-- 0-- 0-- 2-- 2-- 2-- 2--|---------------- 7-- 7-- 7-- 7--|
http://classicalguitartablature.blogspot.com/
E| 0------------------------------|-- 4-------- 4-- 2------------ 5|
B| 0------------------------------| 7---- 5-------- 2 5-- 2------ 5|
G| 1------------------------------| 4-------------- 2------------ 6|
D|--------------------------------| 6------------------------------|
A|--------------------------------|--------------------------------|
E| 0------------------------------| 0-------------- 2--------------|
http://classicalguitartablature.blogspot.com/
E|-- 5-- 5-- 5---- 5 4-- 2--------|-- 4------ 4---- 2--------------|
B|-- 5-- 5-- 5---- 2-------- 5----| 7------ 5------ 2 5---- 2------|
G|-- 6-- 6-- 6---- 2--------------| 4-------------- 2 2------------|
D|--------------------------------| 6---------------- 2------------|
A|---------------- 2--------------|------------------------------ 0|
E| 5------------------------------| 0-------------- 2--------------|
http://classicalguitartablature.blogspot.com/
E|--------------------------------|-- 4------ 4---- 2--------------|
B| 5---- 5-------- 5---- 5--------| 7------ 5------ 2 5---- 2------|
G|-- 6------ 6---- 6 6------------| 4-------------- 2 2------------|
D| 7-------------- 7--------------| 6---------------- 2---------- 7|
A|--------------------------------|------------------------------ 0|
E|-------------- 7----------------| 0-------------- 2--------------|
http://classicalguitartablature.blogspot.com/
E|--------------------------------|-- 4------ 4---- 2--------------|
B| 5---- 5-------- 5---- 5-- 7----| 7------ 5------ 2 5---- 2------|
G|-- 6------ 6------ 6------------| 4-------------- 2 2------------|
D|-------------- 7----------------| 6---------------- 2------------|
A|--------------------------------|--------------------------------|
E|-------------- 7----------------| 0-------------- 2--------------|
http://classicalguitartablature.blogspot.com/
E|-- 5 5---- 5-- 5------ 7--------|--------------------------------|
B|-- 5 5---- 5-- 5------ 7-- 9-- 9|------ 7------------------------|
G| 6-- 6---- 6-- 6------ 8-- 8-- 8|--------------------------------|
D|-------------------------- 9-- 9|--------------------------------|
A|--------------------------------|--------------------------------|
E| 5------------------ 7----------|--------------------------------|
http://classicalguitartablature.blogspot.com/
E|-- 0----------------------------|--------------------------------|
B|-- 0----------------------------|--------------------------------|
G| 1------------------------------|--------------------------------|
D|--------------------------------|--------------------------------|
A|--------------------------------|--------------------------------|
E| 0------------------------------|--------------------------------|
http://classicalguitartablature.blogspot.com/

0 ความคิดเห็น:

แสดงความคิดเห็น