To celebrate the anniversary, I am giving you (finally...) : iPhone LickByNeck !!!!!!

How To Save A Life (BASIC)

The Fray's tune fingerstyle chord melody guitar BASIC arrangement played in the key of C.

How To Save A Life-The Fray-BASIC Arrangement played in the key of C.
http://classicalguitartablature.blogspot.com/
E|--------------------------------|--------------------------------|
B| 1-------------- 1--------------| 3-------------- 3--------------|
G|---- 0------ 0------ 0------ 0--|---- 0------ 0------ 0------ 0--|
D|-------- 2------------ 2--------|-------- 2-------------- 2------|
A| 3------------------------------| 2------------------------------|
E|--------------------------------|--------------------------------|
http://classicalguitartablature.blogspot.com/
E| 0-------------- 0--------------|--------------------------------|
B|--------------------------------| 0-------------- 3--------------|
G|---- 0------ 0------ 0------ 0--|---- 0------ 0------ 0------ 0--|
D|-------- 2-------------- 2------|-------- 2-------------- 2------|
A| 3------------------------------| 2------------------------------|
E|--------------------------------|--------------------------------|
http://classicalguitartablature.blogspot.com/
http://classicalguitartablature.blogspot.com/
E|--------------------------------|--------------------------------|
B|--------------------------------|--------------------------------|
G|---- 0------ 0------ 0------ 0--|------------------------ 0------|
D| 2------------------------ 0----|---- 3------ 2------ 2------ 2--|
A| 3-------------- 3--------------| 2-------------- 2--------------|
E|--------------------------------|--------------------------------|
http://classicalguitartablature.blogspot.com/
E|--------------------------------|--------------------------------|
B|--------------------------------|--------------------------------|
G|---- 0------ 0------ 0------ 0--|---------------------------- 0--|
D| 2------------------------------|---- 3------ 2------ 0----------|
A| 0-------------- 0--------------| 2-------------- 2--------------|
E|--------------------------------|--------------------------------|
http://classicalguitartablature.blogspot.com/
E|--------------------------------|--------------------------------|
B|--------------------------------|--------------------------------|
G|---- 0--------------------------|------------ 0---------- 0------|
D|-------- 2-- 0 2-------- 2-- 2--|---- 0 0------------ 0------ 0--|
A| 3-------------- 3--------------| 2-------------- 2--------------|
E|--------------------------------|--------------------------------|
http://classicalguitartablature.blogspot.com/
E|--------------------------------|--------------------------------|
B|--------------------------------|--------------------------------|
G|-------------------- 0----------|------------------------ 0------|
D| 2-- 2------ 2-------------- 2--|---- 0-- 0---------- 0------ 0--|
A| 0-------------- 0--------------| 2------------ 2-------------- 3|
E|--------------------------------|--------------------------------|
http://classicalguitartablature.blogspot.com/
E|--------------------------------|--------------------------------|
B|-------- 1-- 1------ 1------ 1--|---- 3------ 3------ 1------ 1--|
G|-------- 0-- 0------ 0------ 0--|---- 0------ 0------------------|
D|---- 2---------------------- 0--|--------------------------------|
A|---------------- 3--------------| 2-------------- 2--------------|
E|--------------------------------|--------------------------------|
http://classicalguitartablature.blogspot.com/
E|--------------------------------|---- 0--------------------------|
B|------------ 3------ 3------ 3--|---------- 3-------- 1-- 1------|
G|-------- 0------------------ 0--|--------------------------------|
D|---- 2-------------------- 0----|--------------------------------|
A| 0-------------- 0--------------| 2------------ 2----------------|
E|--------------------------------|--------------------------------|
http://classicalguitartablature.blogspot.com/
E|--------------------------------|------------------------------ 0|
B| 3------ 1-- 3------ 1------ 3--|---- 1-------------------- 1----|
G| 0 0---- 0-- 0------ 0------ 0--|------------------------ 0------|
D|---- 2---------------------- 0--|---------- 0-------- 0-------- 2|
A| 3-------------- 3--------------| 2-------------- 2--------------|
E|--------------------------------|--------------------------------|
http://classicalguitartablature.blogspot.com/
E|------------ 0------ 3------ 0--|--------------------------------|
B|------ 3------------------------|---- 3------------------ 1------|
G|--------------------------------|---- 0--------------------------|
D|--------------------------------|------------ 0------ 0----------|
A| 0------------ 0----------------| 2-------------- 2--------------|
E|--------------------------------|--------------------------------|
http://classicalguitartablature.blogspot.com/
E|-------- 3----------------------|------------ 0------------------|
B| 1---------- 3------ 1------ 3--|---- 3-------------- 0------ 1--|
G| 2---------- 2------------------|---- 0---------------------- 2--|
D|---- 3------ 3---------- 3------|---------------------------- 2--|
A|--------------------------------|--------------------------------|
E| 1-------------- 1--------------| 3-------------- 3--------------|
http://classicalguitartablature.blogspot.com/
E|-------- 3----------------------|------------ 0------------------|
B|------------ 3------ 1------ 3--|---- 3------ 1------ 3 1 3------|
G|------------ 2-------------- 0--|---- 0------ 0------ 0----------|
D|---- 2---------------------- 2--|---- 2-------------- 0----------|
A| 0-------------- 0--------------| 3-------------- 2--------------|
E|--------------------------------|--------------------------------|
http://classicalguitartablature.blogspot.com/
E|-------- 3----------------------|------------ 0------------------|
B| 1---------- 3------ 1------ 3--|---- 3-------------- 0------ 1--|
G| 2---------- 2------------------|---- 0---------------------- 2--|
D|---- 3------ 3---------- 3------|---------------------------- 2--|
A|--------------------------------|--------------------------------|
E| 1-------------- 1--------------| 3-------------- 3--------------|
http://classicalguitartablature.blogspot.com/
E|-------- 3----------------------|------------------------------ 8|
B|------------ 3------ 1------ 1--|-------- 3-- 3------ 0----------|
G|------------ 2-------------- 0--|------------ 0------------------|
D|---- 2---------------------- 2--|---- 2------ 0--------------10--|
A| 0-------------- 0--------------| 3-------------- 2--------------|
E|--------------------------------|--------------------------------|
http://classicalguitartablature.blogspot.com/
E|--------------------------------| 0------ 1-------------- 0------|
B|--------10---- 8----------------| 0------------------------------|
G|------------------------10------|---- 0------ 0------ 0------ 0--|
D|----10------10----10--------10--|--------------------------------|
A|--------------------------------| 2-------------- 2--------------|
E| 8-------------- 8--------------|--------------------------------|
http://classicalguitartablature.blogspot.com/
E| 0------------------------------|--------------------------------|
B| 1------ 1----------------------| 3-------------- 3--------------|
G|-------- 0---------- 0------ 0--|---- 0------ 0------ 0------ 0--|
D|---- 2------ 2---------- 2------|-------- 2-------------- 2------|
A| 0-------------- 0--------------| 2-------------- 2--------------|
E|--------------------------------|--------------------------------|
http://classicalguitartablature.blogspot.com/
E| 8------------------------------| 0------ 1-------------- 0------|
B| 8------10------ 8--------------| 0------------------------------|
G|------------------------10------|---- 0------ 0------ 0------ 0--|
D|----10------10------10------10--|--------------------------------|
A|--------------------------------| 2-------------- 2--------------|
E| 8-------------- 8--------------|--------------------------------|
http://classicalguitartablature.blogspot.com/
E| 0------------------------------|--------------------------------|
B| 1------ 1----------------------| 3-------------- 3--------------|
G|-------- 0---------- 0------ 0--|---- 0------ 0------ 0------ 0--|
D|---- 2------ 2---------- 2------|-------- 2-------------- 2------|
A| 0-------------- 0--------------| 2-------------- 2--------------|
E|--------------------------------|--------------------------------|
http://classicalguitartablature.blogspot.com/

0 ความคิดเห็น:

แสดงความคิดเห็น