To celebrate the anniversary, I am giving you (finally...) : iPhone LickByNeck !!!!!!

I Heard It Through The Grapevine (BASIC)

Marvin Gaye's tune fingerstyle chord melody guitar BASIC arrangement played in the key of Em.

I Heard It Through The Grapevine-Marvin Gaye - BASIC ARRANGEMENT played in the key of Em.
http://classicalguitartablature.blogspot.com/
E| 0---------- 0-- 3------ 0------|------ 0---- 0-- 3-- 2------ 0--|
B| 0---------- 0-- 3------ 0------|------ 0---- 0-- 3-- 2------ 0--|
G|--------------------------------|--------------------------------|
D|--------------------------------|--------------------------------|
A|--------------------------------|--------------------------------|
E| 0---------- 0-- 3------ 0------|---- 0-- 0-- 0-- 3-- 2------ 0--|
http://classicalguitartablature.blogspot.com/
E|---------- 0---- 3------ 0------|-------- 0-- 0-- 3-- 2------ 0--|
B|---------- 0-- 3-------- 0------|-------- 0-- 0-- 3-- 2------ 0--|
G|--------------------------------|--------------------------------|
D|--------------------------------|--------------------------------|
A|--------------------------------|--------------------------------|
E|------------ 0-- 3------ 0------|---- 0-- 0-- 0-- 3-- 2------ 0--|
http://classicalguitartablature.blogspot.com/
http://classicalguitartablature.blogspot.com/
E|---------- 0---- 3------ 0------|-------- 0-- 0-- 3-- 2------ 0--|
B|---------- 0-- 3-------- 0------|-------- 0-- 0-- 3-- 2------ 0--|
G|--------------------------------|--------------------------------|
D|--------------------------------|--------------------------------|
A|--------------------------------|--------------------------------|
E|------------ 0-- 3------ 0------|---- 0-- 0-- 0-- 3-- 2------ 0--|
http://classicalguitartablature.blogspot.com/
E|---------- 0---- 3------ 0------|-------- 0-- 0-- 3-- 2------ 5--|
B|---------- 0-- 3-------- 0------|-------- 0-- 0-- 3-- 2----------|
G|--------------------------------|--------------------------------|
D|--------------------------------|--------------------------------|
A|--------------------------------|--------------------------------|
E|------------ 0-- 3------ 0------|---- 0-- 0-- 0-- 3-- 2------ 0--|
http://classicalguitartablature.blogspot.com/
E| 3------ 3------ 3--------------|-------------------- 0------ 2--|
B|---- 5-- 5-- 5-- 5-- 5-- 5------|-------- 0-- 0 3------------ 0--|
G|---------- 4-------- 4-- 4------|-------- 0-- 0 0------------ 2--|
D|--------------------------------|-------- 0---- 0----------------|
A|--------------------------------|---------------------------- 2--|
E|------------ 0-- 3------ 0------|-------- 0-- 0-- 3-- 2----------|
http://classicalguitartablature.blogspot.com/
E|---- 2---- 0---- 3------ 0------|---------- 0-- 0---- 0 0----12--|
B|---- 0------ 0-- 0-- 3-- 2------|---------- 2-- 2-- 2-- 2----12--|
G|---- 2------ 2-- 2-- 1-- 0------|---------- 0-- 0-- 0-- 0----12--|
D|-------------------- 3----------|-------- 2----------------------|
A|------------ 2------ 1-- 0------|---- 0--------------------------|
E|--------------------------------|---------------------------- 0--|
http://classicalguitartablature.blogspot.com/
E|-------- 3------ 3--------------|-------------------- 0------ 2--|
B|-------- 5-- 5-- 5-- 5-- 5------|-------- 0-- 0 3------------ 0--|
G|---------- 4-------- 4-- 4------|-------- 0-- 0 0------------ 2--|
D|--------------------------------|-------- 0---- 0----------------|
A|--------------------------------|---------------------------- 2--|
E|-------- 0-- 0-- 3------ 0------|-------- 0-- 0-- 3-- 2----------|
http://classicalguitartablature.blogspot.com/
E|---- 2---- 0---- 3------ 0------|-------------- 0------ 0------ 9|
B|---- 0------ 0-- 0-- 3-- 2------|------------ 2 2---- 2 2-- 2----|
G|---- 2------ 2-- 2-- 1-- 0------|------------ 0------ 0---- 0----|
D|-------------------- 3----------|-------- 2----------------------|
A|------------ 2------ 1-- 0------|---- 0--------------------------|
E|--------------------------------|--------------------------------|
http://classicalguitartablature.blogspot.com/
E|--------------------------------|--------------------------------|
B| 9---- 8---- 7 8---- 7------ 5 7|---- 7-------------- 5------ 8--|
G| 9------ 9------ 9-- 9------ 6--|---- 6---------- 6---------- 9--|
D|---------------------------- 5--|---- 5------ 5-- 5---------- 0--|
A|--------------------------------|--------------------------------|
E| 9-------------------------- 5--|------------ 5-- 5---------- 0--|
http://classicalguitartablature.blogspot.com/
E|---------- 7--------------------|------ 7-- 5------ 5------ 3----|
B|--------10------ 8------ 5 5----|------ 5-- 5-- 8-- 5-- 5---- 0--|
G|-------- 9------ 9------ 6-- 6--|------ 6-- 6-- 6---- 6 6---- 0--|
D|-------- 0------ 0------ 5-- 5--|-------------- 5------ 5--------|
A|--------------------------------|--------------------------------|
E|------------------------ 5------|-- 5------------------------ 0--|
http://classicalguitartablature.blogspot.com/
E|---- 3-- 3-- 0-- 3------ 0------|------------------ 5-- 7---- 5--|
B|---- 0-- 0-- 0-- 3------ 0------|-------------- 8-- 5-- 5---- 5--|
G|---- 0-- 0------ 0------ 0------|-------------- 7---- 7 7---- 6--|
D|--------------------------------|-------------- 5----------------|
A|--------------------------------|-------------- 5-- 7------------|
E|------------ 0-- 3------ 0------|---- 0 7-- 7---------------- 5--|
http://classicalguitartablature.blogspot.com/
E|---- 5--------------------------|---------------- 5------ 5-- 3--|
B|---- 5-- 8 5---- 8------ 5------|---- 5------ 5-- 5------ 5-- 0--|
G|---- 6------ 6-- 6------ 6------|---- 6------ 6-- 6---------- 0--|
D|------ 5---- 5-- 5--------------|---- 5------ 5------ 5----------|
A|--------------------------------|--------------------------------|
E|--------------------------------| 5-------------- 5---------- 0--|
http://classicalguitartablature.blogspot.com/
E|---- 0-- 0------ 0------ 0------|------------------ 5-------- 5--|
B|---- 0-- 0-- 3-- 0------ 0------|---------------------------- 5--|
G|---- 0-- 0------ 0------ 0------|--------------------------------|
D|-------- 0----------------------|--------------------------------|
A|--------------------------------|-------------- 5---- 7----------|
E|------------ 0-- 3------ 0------|---- 0-- 7-- 7-------------- 5--|
http://classicalguitartablature.blogspot.com/
E|-------- 5------ 7--------------|-------- 0-- 0-- 3-- 0------ 0--|
B|---- 8------ 8-- 5-- 8-- 8-- 5--|---- 5---------------------- 0--|
G|---- 6---------- 6-- 6-- 6-- 6--|---- 6--------------------------|
D|---- 5-------------- 5-- 5-- 5--|---- 5--------------------------|
A|--------------------------------|-------------------- 0----------|
E|---------------- 5---------- 5--|-------- 0-- 0-- 3---------- 0--|
http://classicalguitartablature.blogspot.com/
E|---- 0---------- 0 0---------- 0|-- 0------------ 0--------------|
B|---- 0-- 0-- 0---------- 0 0-- 0|------ 0-- 0-------- 0------ 5--|
G|------------ 0---------------- 0|---------------------------- 4--|
D|--------------------------------|--------------------------------|
A|--------------------------------|--------------------------------|
E|------------ 0 3-------- 0------|------ 0---- 0-- 3-- 2------ 0--|
http://classicalguitartablature.blogspot.com/
E|-------------------------- 7----|------ 5------ 3-- 5-------- 0--|
B|-------- 0------------------ 0--|---------------------------- 0--|
G|-------- 4----------------------|--------------------------------|
D|--------------------------------|--------------------------------|
A|--------------------------------|--------------------------------|
E|------------ 0-- 3------ 0------|-------- 0-- 0 3-- 2-------- 0--|
http://classicalguitartablature.blogspot.com/
E|---- 0---------- 0 0---------- 0|-- 0------------ 0--------------|
B|---- 0-- 0-- 0---------- 0 0-- 0|------ 0-- 0-------- 0------ 5--|
G|------------ 0---------------- 0|---------------------------- 4--|
D|--------------------------------|--------------------------------|
A|--------------------------------|--------------------------------|
E|------------ 0 3-------- 0------|------ 0---- 0-- 3-- 2------ 0--|
http://classicalguitartablature.blogspot.com/
E|-------------------------- 7----|------ 5------ 3-- 5-------- 0--|
B|-------- 0------------------ 0--|---------------------------- 0--|
G|-------- 4----------------------|--------------------------------|
D|--------------------------------|--------------------------------|
A|--------------------------------|--------------------------------|
E|------------ 0-- 3------ 0------|-------- 0-- 0 3-- 2-------- 0--|
http://classicalguitartablature.blogspot.com/
E|---------- 0---- 3------ 0------|-------- 0-- 0-- 3-- 2------ 0--|
B|---------- 0-- 3-------- 0------|-------- 0-- 0-- 3-- 2------ 0--|
G|--------------------------------|--------------------------------|
D|--------------------------------|--------------------------------|
A|--------------------------------|--------------------------------|
E|------------ 0-- 3------ 0------|---- 0-- 0-- 0-- 3-- 2------ 0--|
http://classicalguitartablature.blogspot.com/
E|---------- 0---- 3------ 0------|-------- 0-- 0-- 3-- 2------ 0--|
B|---------- 0-- 3-------- 0------|-------- 0-- 0-- 3-- 2------ 0--|
G|--------------------------------|--------------------------------|
D|--------------------------------|--------------------------------|
A|--------------------------------|--------------------------------|
E|------------ 0-- 3------ 0------|---- 0-- 0-- 0-- 3-- 2------ 0--|
http://classicalguitartablature.blogspot.com/
E|---------- 0---- 3------ 0------|-------- 0-- 0-- 3-- 2----------|
B|---------- 0-- 3-------- 0------|-------- 0-- 0-- 3-- 2----------|
G|--------------------------------|--------------------------------|
D|--------------------------------|------------------------------ 9|
A|--------------------------------|------------------------------ 7|
E|------------ 0-- 3------ 0------|---- 0-- 0-- 0-- 3-- 2------ 0--|
http://classicalguitartablature.blogspot.com/
E| 0------------------------------|--------------------------------|
B| 0------------------------------|--------------------------------|
G| 9------------------------------|--------------------------------|
D|--------------------------------|--------------------------------|
A|--------------------------------|--------------------------------|
E|--------------------------------|--------------------------------|
http://classicalguitartablature.blogspot.com/

0 ความคิดเห็น:

แสดงความคิดเห็น