To celebrate the anniversary, I am giving you (finally...) : iPhone LickByNeck !!!!!!

Lady In Red (BASIC)

Chris De Burgh's tune fingerstyle chord melody guitar BASIC arrangement played in the key of C.

Lady In Red - Chris De Burgh - BASIC ARRANGEMENT played in the key of C.
http://classicalguitartablature.blogspot.com/
E| 0------------------------------| 0------------------------------|
B| 1---------------------- 1------| 1---- 1---- 3---------- 3------|
G| 0---------------- 0-------- 0--| 2---- 2---- 2---- 2-------- 2--|
D|------ 2-------- 2---- 2--------|------ 3---- 3---- 3 3----------|
A| 3-------- 0 3------------------|--------------------------------|
E|-------- 3----------------------| 1-------- 0 3------------------|
http://classicalguitartablature.blogspot.com/
E| 0------------------------------| 0------------------------------|
B| 1---------------------- 1------| 1---- 1---- 3---------- 3------|
G| 0---------------- 0-------- 0--| 2---- 2---- 2---- 2-------- 2--|
D|------ 2-------- 2---- 2--------|------ 3---- 3---- 3 3----------|
A| 3-------- 0 3------------------|--------------------------------|
E|-------- 3----------------------| 1-------- 0 3------------------|
http://classicalguitartablature.blogspot.com/
http://classicalguitartablature.blogspot.com/
E| 0 0 0 0 0-- 0 0-- 0 0 0 0------|------------------------ 0------|
B| 1-- 1 1 1-- 1---- 1 1 1 1 3 1 3|------ 3-------- 3-- 3------ 3--|
G| 0 0 0 0 0-- 0---- 2 2 2 2 2 2--|---- 0---- 0---- 1-- 1----------|
D|-------------------------- 3 3--|-- 0-------- 0-- 0-- 0----------|
A| 3------------------------------|--------------------------------|
E|---------------- 1--------------| 3-------------- 0--------------|
http://classicalguitartablature.blogspot.com/
E|-------------------- 0----------|--------------------------------|
B| 3-- 1-------- 1---- 1 3 3 1-- 1|-------- 1-------------- 0-- 0--|
G| 2---------- 2------ 2 2 2 2 2--|------ 2---- 2-------- 2---- 0--|
D| 2------ 2---------------- 2----|---- 2-------- 0-- 3-- 0---- 0--|
A| 0-------------- 0--------------| 0------------------------------|
E|--------------------------------|---------------- 1------ 3------|
http://classicalguitartablature.blogspot.com/
E| 0 0 0 0 0-- 0 0-- 0 0 0 0------|------------------------ 0------|
B| 1-- 1 1 1-- 1---- 1 1 1 1 3 1 3|------ 3-------- 3-- 3------ 3--|
G| 0 0 0 0 0-- 0---- 2 2 2 2 2 2--|---- 0---- 0---- 1-- 1----------|
D|-------------------------- 3 3--|-- 0-------- 0-- 0-- 0----------|
A| 3------------------------------|--------------------------------|
E|---------------- 1--------------| 3-------------- 0--------------|
http://classicalguitartablature.blogspot.com/
E|--------------------------------|---------------------------- 0--|
B| 3-- 1-------- 1---- 5-- 6 5-- 3|-- 1-------- 1---------- 1 3----|
G| 2---------- 2------ 5-- 5 5----|-- 2---- 2---- 2------ 2--------|
D| 2------ 2---------- 5-- 5 5----|------ 3------------ 3----------|
A| 0------------------------------|--------------------------------|
E|---------------- 3--------------| 1-------------- 1--------------|
http://classicalguitartablature.blogspot.com/
E|--------------------------------| 1-- 0-- 1 0-- 3---- 1 0------ 0|
B| 6-- 6-- 6-- 5 5-- 3-------- 3 5| 0-- 0---- 0-- 0---------- 3----|
G| 5-- 5-- 5-- 5 5-- 5---- 5------| 0-- 0-- 0 0-- 0----------------|
D| 3-- 3-- 3-- 3 3------ 3--------|--------------------------------|
A| 5-------------- 5--------------|--------------------------------|
E|--------------------------------| 3-------------- 3--------------|
http://classicalguitartablature.blogspot.com/
E|---------------------- 1 0------|-------------------- 0-- 1-- 3--|
B|-------- 1-------- 1------------| 3---------- 3-- 3 0------------|
G|------ 2---- 2------------------| 0------ 0------ 0--------------|
D|---- 2-------- 2----------------|---- 0-------- 0----------------|
A| 0-------------- 0--------------|--------------------------------|
E|--------------------------------| 3-------------- 1--------------|
http://classicalguitartablature.blogspot.com/
E|--------------------------------|------------ 5-- 5---- 3--------|
B|-- 1---- 1-------- 1---- 1------|---------------- 3---- 3---- 6--|
G|---- 2 0---- 2 0---- 2 0-- 2-- 0|-- 5---- 5------ 4---- 4---- 4--|
D|--------------------------------|-- 7 5 7-------------------- 3--|
A| 3------------------------------| 8------------------------------|
E|---------------- 0--------------|---------------- 3--------------|
http://classicalguitartablature.blogspot.com/
E| 0------------------------------|---------------- 0-- 1-- 3-- 5--|
B| 1 1---- 1-------- 1---- 3 1-- 1|-- 1---- 1------ 1-- 1-- 1-- 6--|
G| 2-- 2 0-- 2 0------ 2 0---- 2--|---- 2 0---- 2 0 2-- 2-- 2-- 5--|
D|--------------------------------|--------------------------------|
A| 0-------------- 0--------------| 0-------------- 0--------------|
E|--------------------------------|--------------------------------|
http://classicalguitartablature.blogspot.com/
E|--------------------------------|-------------------- 0-- 1-- 3--|
B|--------------------------------|-- 1---- 1---- 3------------ 1--|
G|-- 5---- 5-------- 5---- 5------|---- 2---- 2-- 0------------ 0--|
D|---- 7 5---- 7 5-- 7 5---- 7-- 5|--------------------------------|
A| 5-------------- 5--------------|--------------------------------|
E|--------------------------------| 3-------------- 3--------------|
http://classicalguitartablature.blogspot.com/
E|-------------------- 3 3 3 3-- 3|---------------- 3-- 5-- 6------|
B|-- 1---- 1---------- 1 1 1 1-- 5|---------------- 5-- 5-- 5--10--|
G|---- 2 0---- 2 0---- 0 0 0 0-- 3|---------------- 3-- 3-- 3--10--|
D|--------------------------------|----------------------------10--|
A| 3-------------- 3--------------| 3-- 3-- 3-- 3-- 3-- 3-- 3------|
E|--------------------------------|--------------------------------|
http://classicalguitartablature.blogspot.com/
E|--------------------------------|------------ 7-- 7---- 7-- 8-- 7|
B|-- 8----------------------------|-------- 5-- 5--10--1010--10-- 5|
G|----10------10----------10------|-------- 7------ 7-- 7 7-- 7-- 5|
D|--------10----10----10----------|---- 7--------------------------|
A| 8-------------- 8---------- 8--|--------------------------------|
E|--------------------------------| 7-------------- 0--------------|
http://classicalguitartablature.blogspot.com/
E|-- 5----------------------------|------------------------ 0------|
B|-- 5------------------------ 5--|-------- 1---------- 1----------|
G|-- 5-------- 5---------- 5------|------------ 2-- 2---------- 7--|
D|------ 5---- 5------ 5----------|---- 2--------------------------|
A| 0------------------------------|--------------------------------|
E|---------------- 3--------------| 2------------------------------|
http://classicalguitartablature.blogspot.com/
E|--------------------------------|-------------- 0 0--------------|
B|--------------------------------| 1------ 1------ 1-- 3-- 1-- 1--|
G|-- 5---- 5-------- 5---- 5------|---- 2 0---- 2-- 2-- 2---- 2 0--|
D|---- 7 5-- 7-- 5---- 7 5-- 7 5--|-------------------- 3------ 2--|
A| 5-------------- 5--------------|--------------------------------|
E|------------------------------ 3|---------------- 3--------------|
http://classicalguitartablature.blogspot.com/
E|--------------------------------| 0------------------------------|
B|------ 1---------------- 1------| 1---- 1---- 3---------- 3------|
G|------ 0------------ 0------ 0--| 2---- 2---- 2---- 2-------- 2--|
D|------ 2---------- 2-- 2--------|------ 3---- 3---- 3 3----------|
A| 3-------- 0 3------------------|--------------------------------|
E|-------- 3----------------------| 1-------- 0 3------------------|
http://classicalguitartablature.blogspot.com/
E| 0------------------------------| 0------------------------------|
B| 1---------------------- 1------| 1---- 1---- 3---------- 3------|
G| 0---------------- 0-------- 0--| 2---- 2---- 2---- 2-------- 2--|
D|------ 2-------- 2---- 2--------|------ 3---- 3---- 3 3----------|
A| 3-------- 0 3------------------|--------------------------------|
E|-------- 3----------------------| 1-------- 0 3------------------|
http://classicalguitartablature.blogspot.com/
E|--------------------------------|--------------------------------|
B|-- 1----------------------------|--------------------------------|
G| 0------------------------------|--------------------------------|
D| 2------------------------------|--------------------------------|
A| 3------------------------------|--------------------------------|
E|--------------------------------|--------------------------------|
http://classicalguitartablature.blogspot.com/

0 ความคิดเห็น:

แสดงความคิดเห็น