To celebrate the anniversary, I am giving you (finally...) : iPhone LickByNeck !!!!!!

Mad World (BASIC)

Adam Lambert / Tears For Fears' tune fingerstyle chord melody guitar BASIC arrangement played in the key of Am.

Mad World-Adam Lambert/Tears For Fears - BASIC ARRANGEMENT played in the key of Am.
http://classicalguitartablature.blogspot.com/
E|----12--------------------------|--------------------------------|
B|13----12--13--10----12------ 7--|----------------------------13--|
G|------------------------12------|-------- 7-------------- 7------|
D|------10----------------10------|---- 7------ 7------ 7----------|
A| 0-------------- 0--------------| 5-------------- 5------------ 0|
E|--------------------------------|--------------------------------|
http://classicalguitartablature.blogspot.com/
E|----12----------------------10--|--------------------------------|
B|------12----13--10--1213--------|--------------------------------|
G|--------------------------------|-------- 7-------------- 7------|
D|------10----------------10------|---- 7------ 7------ 7------ 7--|
A|---------------- 0--------------|--------------------------------|
E|--------------------------------|10------------10----------------|
http://classicalguitartablature.blogspot.com/
http://classicalguitartablature.blogspot.com/
E|--------------------------------| 0 0------ 0--------------------|
B|-------------- 1---- 1----------| 1 1------ 1------ 1-------- 1--|
G|-------- 2-- 2-------- 2-- 2----|---- 0---- 0------ 0------------|
D|---- 2-- 2-- 2-------- 2-- 2----|------ 2---------------- 2------|
A| 0------------ 0-------------- 3|-------------- 3----------------|
E|--------------------------------|--------------------------------|
http://classicalguitartablature.blogspot.com/
E|--------------------------------|--------------------------------|
B| 3-- 3------ 3------ 0------ 0--| 3-- 3------ 3---------- 0------|
G| 0-- 0------ 0------ 0------ 0--| 5-- 5------ 5------ 5------ 2--|
D| 0-- 0-- 0-------------- 0------|---- 4-- 4-------------- 4------|
A|--------------------------------| 5-------------- 5--------------|
E| 3-------------- 3--------------|--------------------------------|
http://classicalguitartablature.blogspot.com/
E|--------------------------------| 0 0------ 0--------------------|
B|---------------- 1-- 1----------| 1 1------ 1------ 1-------- 1--|
G|-------- 2-- 2---------- 2 2----|---- 0---- 0------ 0------------|
D|---- 2-- 2-- 2---------- 2 2----|------ 2---------------- 2------|
A| 0-------------- 0------------ 3|-------------- 3----------------|
E|--------------------------------|--------------------------------|
http://classicalguitartablature.blogspot.com/
E|--------------------------------|--------------------------------|
B| 3-- 3------ 3------ 0------ 0--| 3-- 3------ 3---------- 0------|
G| 0-- 0------ 0------ 0------ 0--| 5-- 5------ 5------ 5------ 2--|
D| 0-- 0-- 0-------------- 0------|---- 4-- 4-------------- 4------|
A|--------------------------------| 5-------------- 5--------------|
E| 3-------------- 3--------------|--------------------------------|
http://classicalguitartablature.blogspot.com/
E|--------------------------------| 0 0------ 0--------------------|
B|---------------- 1-- 1----------| 1 1------ 1------ 1-------- 1--|
G|-------- 2-- 2---------- 2 2----|---- 0---- 0------ 0------------|
D|---- 2-- 2-- 2---------- 2 2----|------ 2---------------- 2------|
A| 0-------------- 0------------ 3|-------------- 3----------------|
E|--------------------------------|--------------------------------|
http://classicalguitartablature.blogspot.com/
E|--------------------------------|--------------------------------|
B| 3-- 3------ 3------ 0------ 0--| 3-- 3------ 3---------- 0------|
G| 0-- 0------ 0------ 0------ 0--| 5-- 5------ 5------ 5------ 2--|
D| 0-- 0-- 0-------------- 0------|---- 4-- 4-------------- 4------|
A|--------------------------------| 5-------------- 5--------------|
E| 3-------------- 3--------------|--------------------------------|
http://classicalguitartablature.blogspot.com/
E|--------------------------------|--------------------------------|
B|---------------- 1--------------|--------------------------------|
G|-------- 2-- 2---- 2---- 2-- 2--| 0-- 0------ 0---------- 0------|
D|---- 2-- 2-- 2---- 2---- 2------| 2------ 2---------- 2------ 2--|
A| 0------------ 0----------------| 3-------------- 3--------------|
E|--------------------------------|--------------------------------|
http://classicalguitartablature.blogspot.com/
E|--------------------------------|--------------------------------|
B| 3-- 3------ 3------ 0------ 0--| 3-- 3------ 3---------- 0------|
G| 0-- 0------ 0------ 0------ 0--| 5-- 5------ 5------ 5------ 2--|
D| 0-- 0-- 0-------------- 0------|---- 4-- 4-------------- 4------|
A|--------------------------------| 5-------------- 5--------------|
E| 3-------------- 3--------------|--------------------------------|
http://classicalguitartablature.blogspot.com/
E|---------------------- 0-- 0-- 2|-------------- 2-- 2------------|
B|-------------- 1-- 1---------- 3|-- 3------ 3-- 3-- 3-- 3-- 3----|
G|------ 2---- 2 2-------------- 2|---------- 2-- 2-- 2-- 2--------|
D|---- 2-- 2-- 2-------- 2--------|------ 4-------------- 4--------|
A| 0------------ 0-------------- 5|---------------- 5--------------|
E|--------------------------------|--------------------------------|
http://classicalguitartablature.blogspot.com/
E|------------------------ 0-- 0--| 2-------------- 2-- 2----------|
B|---------------- 1-- 1----------| 3-- 3------ 3-- 3-- 3-- 3-- 3--|
G| 2---------- 2-- 2-- 2----------| 2-- 2------ 2---------- 2------|
D|---- 2-- 2------ 2-- 2-- 2------|---- 4-- 4-------------- 4------|
A| 0-------------- 0--------------| 5-------------- 5--------------|
E|--------------------------------|--------------------------------|
http://classicalguitartablature.blogspot.com/
E|------------------------ 0-- 0--| 2------------------------------|
B|---------------- 1-- 1----------| 3-- 3------ 3-- 3------ 3-- 3--|
G| 2---------- 2-- 2-- 2----------| 2-- 2------ 2-- 5-- 5-- 5------|
D|---- 2-- 2------ 2-- 2-- 2------|---- 4-- 4------ 4------ 4------|
A| 0-------------- 0--------------| 5-------------- 5--------------|
E|--------------------------------|--------------------------------|
http://classicalguitartablature.blogspot.com/
E| 0-------------------- 0-- 0-- 2|---------------- 2 2------------|
B| 1-------------- 1-- 1-------- 3|---- 3-- 3-- 3-- 3 3---- 3 4 3 1|
G| 2---------- 2-- 2--------------| 2------ 2-- 2-- 2------ 2------|
D|---- 2-- 2------ 2---- 2--------|-------- 4-- 4-------- 4--------|
A| 0-------------- 0--------------| 5-------------- 5------------ 0|
E|--------------------------------|--------------------------------|
http://classicalguitartablature.blogspot.com/
E|--------------------------------|--------------------------------|
B|-- 1-- 0-- 0-- 1----------------|---------------------------- 1--|
G|-------------- 2---- 2-- 0------| 2-- 2------ 2------ 2------ 2--|
D|------ 2------ 2-------- 2-- 4--|-------- 4-------------- 4-- 2--|
A|---------------- 0--------------| 5-------------- 5--------------|
E|--------------------------------|--------------------------------|
http://classicalguitartablature.blogspot.com/
E|--------------------------------|--------------------------------|
B|---- 1-- 0-- 0 1----------------| 3------------------------------|
G|-------------- 2---- 2-- 0------|---- 2------ 2------ 2------ 2--|
D|------ 2------ 2-------- 2-- 4--|-------- 4-------------- 4------|
A| 0-------------- 0--------------| 5-------------- 5--------------|
E|--------------------------------|--------------------------------|
http://classicalguitartablature.blogspot.com/
E|---------------- 0--------------| 2------------------------------|
B| 1-- 1-- 0-- 0-- 1--------------| 3-------------------------- 1--|
G| 2-------------- 2-- 2-- 0------|---- 2------ 2------ 2------ 2--|
D| 2------ 2-------------- 2-- 4--|-------- 4-------------- 4-- 2--|
A| 0-------------- 0--------------| 5-------------- 5------------ 0|
E|--------------------------------|--------------------------------|
http://classicalguitartablature.blogspot.com/
E|---------------- 3--------------| 5------------------------------|
B|---- 1-- 0-- 0-- 1--------------| 5------------------------------|
G|---- 2---------- 2-- 2-- 0------| 5------------------------------|
D|---- 2 2---------------- 2-- 4--|--------------------------------|
A|---------------- 0--------------| 5------------------------------|
E|--------------------------------|--------------------------------|
http://classicalguitartablature.blogspot.com/

0 ความคิดเห็น:

แสดงความคิดเห็น