To celebrate the anniversary, I am giving you (finally...) : iPhone LickByNeck !!!!!!

Music Of The Night - Phantom Of The Opera (BASIC)

Phantom Of The Opera's tune fingerstyle chord melody guitar BASIC arrangement played in the key of A.

Music Of The Night-The Phantom Of The Opera-BASIC Arrangement played in the key of A.
http://classicalguitartablature.blogspot.com/
E|------------------------ 0------|---------------------- 0--------|
B| 2---------- 3-- 0--------------| 2---------- 3-- 0--------------|
G| 2------ 2------ 1--------------| 2------ 2------ 1--------------|
D|---- 2-------------- 2------ 2--|---- 2-------------- 2------ 2--|
A| 0------------------------------| 0------------------------------|
E|---------------- 0--------------|---------------- 0--------------|
http://classicalguitartablature.blogspot.com/
E|--------------------------------|------------------------ 0------|
B| 2-------------- 0--------------|---- 0-- 2-- 3-- 0--------------|
G|---- 2------ 2 1---- 1------ 1--| 2-------------- 1--------------|
D|-------- 2-------------- 2------| 2------------------ 2------ 2--|
A| 0-------------- 0--------------| 0-------------- 0--------------|
E|--------------------------------|--------------------------------|
http://classicalguitartablature.blogspot.com/
http://classicalguitartablature.blogspot.com/
E|--------------------------------|------------------------ 0------|
B| 2-------------- 0--------------|-- 0-- 2---- 3-- 0--------------|
G|---- 2------ 2 1---- 1------ 1--| 2-------------- 1--------------|
D|-------- 2-------------- 2---- 4|-------------- 2---- 2------ 2--|
A| 0-------------- 0------------ 5|------------------------------ 5|
E|--------------------------------|-------------- 0----------------|
http://classicalguitartablature.blogspot.com/
E|---- 5-- 5-- 5-- 7------ 5-- 4--|---- 5-- 5-- 5-- 7------ 5-- 4--|
B| 7-- 7-- 7-- 7-- 5------ 5------| 7-- 7-- 7-- 7-- 5------ 5------|
G| 7-- 7-- 7-- 7-- 6-- 6----------| 7-- 7-- 7-- 7-- 6-- 6----------|
D| 7------------------------------| 7------------------------------|
A|-------------- 0-------------- 5|-------------- 0-------------- 5|
E|--------------------------------|--------------------------------|
http://classicalguitartablature.blogspot.com/
E|---- 5-- 5-- 5-- 7-- 5-- 2------| 0------------------------------|
B| 7-- 7-- 7-- 7-- 0------ 2-- 2--| 2---------- 2-- 2-- 0-- 0-- 2--|
G| 7-- 7-- 7-- 7 0-------- 2-- 2 2|-------- 2------ 2--------------|
D| 7-------------------------- 4--|---- 2-------- 0-------------- 0|
A|---------------------- 5------ 0|--------------------------------|
E|-------------- 3----------------|-------------- 0-------------- 0|
http://classicalguitartablature.blogspot.com/
E|-- 0------------------------ 0--| 7------ 5-- 3-- 2-- 0------ 0--|
B| 3------ 2-- 0---------- 2------| 0---- 0-------- 0-- 0-- 3------|
G| 1-------------- 2------ 2------|---- 0-------- 0-------- 0---- 0|
D|-------------------- 2-- 2------|------------------------ 0------|
A|---------------- 0--------------|------------------------------ 3|
E|--------------------------------| 3------------ 3----------------|
http://classicalguitartablature.blogspot.com/
E| 0-------------------- 0-- 3----| 8------ 7----------------------|
B| 1------ 3------ 1---- 1--------|10--10----10--10-- 8-- 8---- 7--|
G|------ 0------ 0---- 0 0------10|----10--------10----------------|
D|---- 2------ 2------ 2----------|------------------------------ 4|
A|------------------------ 3---- 8|-------------- 8----------------|
E|--------------------------------|------------------------------ 7|
http://classicalguitartablature.blogspot.com/
E|---------------------- 7-- 7----| 7------ 5-- 4------------------|
B| 7------ 7------------------ 4--| 5-- 5-- 5-- 5-- 7-- 5-- 7-- 5--|
G| 4---- 4------ 4---- 4---- 4-- 4|------ 4 4-- 4-- 4-- 4-- 4-- 4 9|
D|---- 4------ 4------ 4----------|---- 6---------- 6-- 6-- 6-- 6--|
A|---------------- 6--------------|------------------------------ 0|
E|------------------------------ 0|-------------- 4----------------|
http://classicalguitartablature.blogspot.com/
E|12------------------------------| 4------ 4-- 4-- 4------ 4-- 5--|
B|10------10------10------ 9-- 9--| 5------ 5-- 5-- 4-- 7-- 4-- 4--|
G|-------- 9------ 9------------ 6|---- 6-- 6-- 6 5---- 5-- 5-- 5 6|
D|----11------11------------------|-------------------- 4----------|
A|------------------------------ 4|------------------------------ 4|
E|--------------------------------|-------------- 4----------------|
http://classicalguitartablature.blogspot.com/
E| 4-------------- 4--------------|--------------------------------|
B| 5---------- 5------------------| 2-------------- 0--------------|
G|-------- 6----------------------|---- 2------ 2 1---- 1------ 1--|
D|---- 6--------------------------|-------- 2-------------- 2------|
A|--------------------------------| 0-------------- 0--------------|
E|--------------------------------|--------------------------------|
http://classicalguitartablature.blogspot.com/
E|------------------------ 0------|--------------------------------|
B|---- 0-- 2-- 3-- 0--------------| 2-------------- 0--------------|
G| 2-------------- 1--------------|---- 2------ 2 1---- 1------ 1--|
D| 2------------------ 2------ 2--|-------- 2-------------- 2---- 4|
A| 0-------------- 0--------------| 0-------------- 0------------ 5|
E|--------------------------------|--------------------------------|
http://classicalguitartablature.blogspot.com/
E|------------------------ 0------|---- 5-- 5-- 5-- 7------ 5-- 4--|
B|-- 0-- 2---- 3-- 0--------------| 7-- 7-- 7-- 7-- 5------ 5------|
G| 2-------------- 1--------------| 7-- 7-- 7-- 7-- 6-- 6----------|
D|-------------- 2---- 2------ 2--| 7------------------------------|
A|------------------------------ 5|-------------- 0-------------- 5|
E|-------------- 0----------------|--------------------------------|
http://classicalguitartablature.blogspot.com/
E|---- 5-- 5-- 5-- 7------ 5-- 4--|---- 5-- 5-- 5-- 7-- 5-- 2------|
B| 7-- 7-- 7-- 7-- 5------ 5------| 7-- 7-- 7-- 7-- 0------ 2-- 2--|
G| 7-- 7-- 7-- 7-- 6-- 6----------| 7-- 7-- 7-- 7 0-------- 2-- 2 2|
D| 7------------------------------| 7-------------------------- 4--|
A|-------------- 0-------------- 5|---------------------- 5------ 0|
E|--------------------------------|-------------- 3----------------|
http://classicalguitartablature.blogspot.com/
E| 0------------------------------|------ 0------------------------|
B| 2---------- 2-- 2-- 0-- 0-- 2--|-- 3------ 2---- 0--------------|
G|-------- 2------ 2--------------| 1------------------------------|
D|---- 2---------- 0--------------| 0------------------------------|
A|--------------------------------|--------------------------------|
E|---------------- 0--------------| 0------------------------------|
http://classicalguitartablature.blogspot.com/
E|-------------- 5----------------|-------- 5----------------------|
B|--------------------------------|--------------------------------|
G|-------------- 2----------------|-------- 4----------------------|
D|--------------------------------|--------------------------------|
A|-------------- 5----------------|-------- 2----------------------|
E|--------------------------------|--------------------------------|
http://classicalguitartablature.blogspot.com/
E| 5-------------------- 5--------|-------------------- 5-- 5------|
B|---------------------- 4--------|---------------------- 5--------|
G| 6-------------------- 5--------|------------------ 2------------|
D|--------------------------------|------------------ 2------------|
A|--------------------------------|------------------ 0------------|
E| 6-------------------- 4--------|--------------------------------|
http://classicalguitartablature.blogspot.com/

0 ความคิดเห็น:

แสดงความคิดเห็น