To celebrate the anniversary, I am giving you (finally...) : iPhone LickByNeck !!!!!!

O Mio Babbino Caro (BASIC)

America's Got Talent Ten-year-old opera sensation Jackie Evancho's tune fingerstyle chord melody guitar BASIC arrangement played in the key of E.

O Mio Babbino Caro-Jackie Evancho-BASIC Arrangement played in the key of E.
http://classicalguitartablature.blogspot.com/
E|-------- 2------ 4------|------------------------|
B| 5-------------- 5------| 5-------------- 2------|
G| 2-------------- 4------| 2------ 2--------------|
D|---- 2------------------|---- 2------ 2----------|
A| 0----------------------|------------------------|
E|---------------- 4------| 2----------------------|
http://classicalguitartablature.blogspot.com/
E| 0-------------------- 0|------------------------|
B|------------------------|-------------- 0--------|
G|-------- 1------ 1------|------------------------|
D|---- 2------ 2------ 2--|------------------------|
A|------------------------|------------------------|
E| 0----------------------| 0----------------------|
http://classicalguitartablature.blogspot.com/
http://classicalguitartablature.blogspot.com/
E| 0------ 0------ 0------| 4----------------------|
B| 0----------------------| 5------ 5------ 4------|
G|---- 1------ 1----------| 4------ 4--------------|
D|------------------------|---- 6------ 6------ 6--|
A|------------------------|------------------------|
E| 0-------------------- 7|------------------------|
http://classicalguitartablature.blogspot.com/
E|------------------------|------------------------|
B| 2----------------------| 0----------------------|
G| 1------ 1------ 1------| 1------ 1------ 1------|
D|---- 2------ 2----------|---- 2------ 2------ 2 6|
A|------------------------| 2----------------------|
E| 0----------------------|---------------------- 0|
http://classicalguitartablature.blogspot.com/
E|---------------- 4------|----------------12------|
B| 5------ 7--------------|------------------------|
G| 4----------------------| 9------ 9--------------|
D|---- 6------ 6----------|---- 9------ 9----------|
A|------------------------|------------------------|
E|------------------------| 7----------------------|
http://classicalguitartablature.blogspot.com/
E| 7------ 7------ 7------| 7----------------------|
B| 9------ 9--------------| 9-------------- 9------|
G|------------------ 9----|-------- 9--------------|
D|---- 9------ 9----------|---- 9------ 9----------|
A|------------------------|------------------------|
E| 0----------------------| 7----------------------|
http://classicalguitartablature.blogspot.com/
E| 7----------------------| 5-------------- 4------|
B| 4-------------- 7------| 2----------------------|
G|-------- 4------------ 2|------ 2----------------|
D|---- 4------ 4------ 4--|---- 2------ 2------ 3--|
A|------------------------|------------------------|
E| 7-------------------- 2|------------------------|
http://classicalguitartablature.blogspot.com/
E|------------------------|------------------------|
B| 5---------- 5----------| 5------------ 5--------|
G| 4------ 4---------- 4--|------ 4----------------|
D|---- 6---------- 6------|---- 6------ 6------ 6--|
A| 4----------------------| 4----------------------|
E|------------------------|------------------------|
http://classicalguitartablature.blogspot.com/
E|-------- 2------ 4------|------------------------|
B| 5----------------------| 5---------- 5-- 4------|
G| 3----------------------| 3------ 3--------------|
D|---- 2------ 2------ 2--| 2-- 2-------------- 2--|
A|------------------------| 4----------------------|
E| 2----------------------|------------------------|
http://classicalguitartablature.blogspot.com/
E| 2-------------- 2------|------------------------|
B| 2----------------------| 7----------------------|
G|-------- 2--------------| 4------ 4------ 4------|
D|---- 2------ 2------ 2--|---- 4------ 4----------|
A| 2----------------------| 6----------------------|
E|------------------------|------------------------|
http://classicalguitartablature.blogspot.com/
E| 0------ 0------ 0------| 4----------------------|
B| 0----------------------| 5------ 5------ 4------|
G|---- 1------ 1----------| 4------ 4--------------|
D|------------------------|---- 6------ 6------ 6--|
A|------------------------|------------------------|
E| 0-------------------- 7|------------------------|
http://classicalguitartablature.blogspot.com/
E|------------------------|------------------------|
B| 2----------------------| 0----------------------|
G| 1------ 1------ 1------| 1------ 1------ 1------|
D|---- 2------ 2----------|---- 2------ 2------ 2 6|
A|------------------------| 2----------------------|
E| 0----------------------|---------------------- 0|
http://classicalguitartablature.blogspot.com/
E|---------------- 4------|----------------12------|
B| 5------ 7--------------|------------------------|
G| 4----------------------| 9------ 9--------------|
D|---- 6------ 6----------|---- 9------ 9----------|
A|------------------------|------------------------|
E|------------------------| 7----------------------|
http://classicalguitartablature.blogspot.com/
E| 7-------------------- 7|-------------- 9------12|
B| 9---------- 9----------|------------ 9----------|
G|------ 9------------ 9--|------ 9----------------|
D|---- 9---------- 9------|---- 9------------------|
A|------------------------|------------------------|
E| 0----------------------| 7----------------------|
http://classicalguitartablature.blogspot.com/
E|-------------- 9--------| 7-------------- 5------|
B|------------10----------| 4---------- 4----------|
G|------ 9----------------|-------- 4--------------|
D|----11------------------|---- 4------------------|
A| 0----------------------|------------------------|
E|------------------------| 7----------------------|
http://classicalguitartablature.blogspot.com/
E| 7----------------------| 4----------------------|
B| 4---------- 4----------| 5---------- 5----------|
G|-------- 4--------------|-------- 4--------------|
D|---- 4------------------|---- 6------------------|
A|---------------- 6------| 4----------------------|
E| 4----------------------|---------------- 4------|
http://classicalguitartablature.blogspot.com/
E|-------- 2---- 4--------|------------------------|
B| 5-------------------- 5|-------------- 2--------|
G| 2----------------------|------ 2----------------|
D|---- 2------ 2------ 2--|---- 2------ 2------ 2--|
A| 0----------------------|------------------------|
E|------------------------| 2----------------------|
http://classicalguitartablature.blogspot.com/
E|------------------------|-------------- 9--------|
B| 5----------------------|-------------------- 9--|
G| 4------ 4------ 4------| 9---- 9----------------|
D|---- 6------ 6------ 6 9|---- 9------ 9----------|
A| 4----------------------|------------------------|
E|------------------------| 7----------------------|
http://classicalguitartablature.blogspot.com/
E|12------------ 9--------| 7------------ 5--------|
B|10----------------------| 4----------------------|
G|------ 9----------------|------ 4------------ 4--|
D|----11------11------11--|---- 4------ 4----------|
A| 9----------------------|------------------------|
E|------------------------| 7----------------------|
http://classicalguitartablature.blogspot.com/
E|12----------------------|------------------------|
B| 9---------- 9--12------|10----------10----------|
G|-------- 9--------------|10----10----------------|
D|---- 9---------------- 9|---- 9---------- 9------|
A|11----------------------|---------------------- 0|
E|---------------------- 9|------------------------|
http://classicalguitartablature.blogspot.com/
E|---------- 2-------- 4--|------------------------|
B| 5-------- 5-------- 5--|------------ 5----------|
G| 2-------------------- 4|------------ 2----------|
D| 2----------------------|---------- 2------------|
A|------------------------|------------------------|
E|---------------------- 4|---------- 2------------|
http://classicalguitartablature.blogspot.com/
E|------------------------|------ 9----------------|
B|------------------------|--------12--------------|
G|------------------------|------11----------------|
D|------------------------|------------ 9----------|
A|------------------------|------------------------|
E|------------------------|----11------------------|
http://classicalguitartablature.blogspot.com/
E|------------------------|----12------------------|
B|------------------------|12----------------------|
G|------------------------| 9----------------------|
D|------------------------| 9----------------------|
A|------------------------|------------------------|
E|---------------------- 0|------------------------|
http://classicalguitartablature.blogspot.com/

0 ความคิดเห็น:

แสดงความคิดเห็น