To celebrate the anniversary, I am giving you (finally...) : iPhone LickByNeck !!!!!!

Satisfaction (BASIC)

Rolling Stones' tune fingerstyle chord melody guitar BASIC arrangement played in the key of E.

Satisfaction-Rolling Stones - BASIC ARRANGEMENT played in the key of E.
http://classicalguitartablature.blogspot.com/
E|--------------------------------|--------------------------------|
B| 0------ 0---------- 0-- 2-- 3--|------------ 3 3-- 2-- 2--------|
G| 1------ 1---------- 1-- 1-- 2--|------------ 2 2-- 2-- 2-- 4----|
D| 2------ 2---------- 2-- 2-- 2--|------------ 2-- 2-- 2 2-- 2----|
A|--------------------------------|--------------------------------|
E|--------------------------------|--------------------------------|
http://classicalguitartablature.blogspot.com/
E|--------------------------------|--------------------------------|
B| 0------ 0---------- 0-- 2-- 3--|------------ 3 3-- 2-- 2--------|
G| 1------ 1---------- 1-- 1-- 2--|------------ 2 2-- 2-- 2-- 4----|
D| 2------ 2---------- 2-- 2-- 2--|------------ 2-- 2-- 2 2-- 2----|
A|--------------------------------|--------------------------------|
E|--------------------------------|--------------------------------|
http://classicalguitartablature.blogspot.com/
http://classicalguitartablature.blogspot.com/
E|--------------------------------|--------------------------------|
B| 0---- 0---------- 0-- 2---- 3--|------------ 3-- 3-- 2-- 2------|
G| 1---- 1---------- 1-- 1---- 2--|------------ 2-- 2---------- 4--|
D| 2------ 2-------- 2-- 2---- 2--|------------ 2-- 2--------------|
A|--------------------------------| 0------ 0------ 0------ 0------|
E| 0------ 0------ 0------ 0------|--------------------------------|
http://classicalguitartablature.blogspot.com/
E|--------------------------------|--------------------------------|
B| 0---- 0---------- 0-- 2---- 3--|------------ 3-- 3-- 2-- 2------|
G| 1---- 1---------- 1-- 1---- 2--|------------ 2-- 2---------- 4--|
D| 2------ 2-------- 2-- 2---- 2--|------------ 2-- 2--------------|
A|--------------------------------| 0------ 0------ 0------ 0------|
E| 0------ 0------ 0------ 0------|--------------------------------|
http://classicalguitartablature.blogspot.com/
E|-------------------- 7------10--|------------ 7------ 9----------|
B|-------- 9----------------------|-------- 9---------- 9------ 9--|
G|------------ 9------------------|-- 9-------------------- 9------|
D|---- 9------------------ 9------|--------------------------------|
A|--------------------------------|--------------------------------|
E| 0-------------- 7--------------| 0-------------- 7--------------|
http://classicalguitartablature.blogspot.com/
E|------------------ 0-------- 3--|---------- 0------ 2------------|
B|-------- 2----------------------|--------------------------------|
G|------------ 2------------------|-------- 2---------------- 2----|
D|---- 2------------------ 2------|---- 2--------------------------|
A| 0------------------------------| 0------------------------------|
E|-------------- 0----------------|-------------- 0----------------|
http://classicalguitartablature.blogspot.com/
E|-------------------- 7------10--|------------ 7------ 9----------|
B|-------- 9----------------------|-------- 9---------- 9------ 9--|
G|------------ 9------------------|-- 9-------------------- 9------|
D|---- 9------------------ 9------|--------------------------------|
A|--------------------------------|--------------------------------|
E| 0-------------- 7--------------| 0-------------- 7--------------|
http://classicalguitartablature.blogspot.com/
E|------------------ 0-------- 3--|------------ 0------ 0-- 0-- 4--|
B|-------- 2------------------ 2--|-------- 2---------- 2-- 2-- 5--|
G|------------ 2-------------- 2--|---- 2------------------ 2-- 4--|
D|---- 2------------------ 2------|--------------------------------|
A| 0------------------------------| 0------------------------------|
E|-------------- 0----------------|-------------- 0----------------|
http://classicalguitartablature.blogspot.com/
E|-------------------- 2-- 4------|---------------------------- 7--|
B|-------- 5---------- 5-- 5--10--|-------------------- 9--10-- 9--|
G|---- 4------ 4---- 4---- 4-- 8--|-------- 8---------- 8-- 8-- 9--|
D|---------------------------- 7--|---- 7------ 7------ 7-- 7------|
A|---------------- 2--------------|---------------- 9--------------|
E| 0------------------------------| 7------------------------------|
http://classicalguitartablature.blogspot.com/
E|-------------------- 7-- 7-- 9--|---------------------------- 3--|
B|------------ 9------ 9-- 9--10--|----1210-------------------- 0--|
G|-------- 9---------- 9-- 9-- 9--|---- 9 9---------------- 9-- 1--|
D|---- 9--------------------------|----1111----11------12----------|
A|--------------------------------| 0------------------------------|
E| 0-------------- 7--------------|---------------- 0--------------|
http://classicalguitartablature.blogspot.com/
E|---- 0--------------------------|---------------------------- 3--|
B|---- 0------ 0-- 0-- 2------ 3--|---------------- 3-- 5------ 0--|
G|---- 1------ 1-- 1-- 1------ 2--|---- 2------ 2-- 2-- 2------ 1--|
D|------------ 0-- 0-- 0------ 2--|---- 2------ 2-- 2--------------|
A|--------------------------------| 0------ 0------ 0------ 0------|
E| 0------ 0------ 0------ 0------|--------------------------------|
http://classicalguitartablature.blogspot.com/
E|---- 0--------------------------|---------------------------- 3--|
B|---- 0------ 0-- 0-- 2------ 3--|---------------- 3-- 5------ 0--|
G|---- 1------ 1-- 1-- 1------ 2--|---- 2------ 2-- 2-- 2------ 1--|
D|------------ 0-- 0-- 0------ 2--|---- 2------ 2-- 2--------------|
A|--------------------------------| 0------ 0------ 0------ 0------|
E| 0------ 0------ 0------ 0------|--------------------------------|
http://classicalguitartablature.blogspot.com/
E|---- 0--------------------------|---------------------------- 3--|
B|---- 0------ 0-- 0-- 2------ 3--|---------------- 3-- 5------ 0--|
G|---- 1------ 1-- 1-- 1------ 2--|---- 2------ 2-- 2-- 2------ 1--|
D|------------ 0-- 0-- 0------ 2--|---- 2------ 2-- 2--------------|
A|--------------------------------| 0------ 0------ 0------ 0------|
E| 0------ 0------ 0------ 0------|--------------------------------|
http://classicalguitartablature.blogspot.com/
E|---- 0--------------------------|--------------------------------|
B|---- 0------ 0-- 0-- 2------ 3--|---------------- 3-- 5------ 8--|
G|---- 1------ 1-- 1-- 1------ 2--|---- 2------ 2-- 2-- 2------ 7--|
D|------------ 0-- 0-- 0------ 2--|---- 2------ 2-- 2---------- 6--|
A|--------------------------------| 0------ 0------ 0------ 0-- 7--|
E| 0------ 0------ 0------ 0------|--------------------------------|
http://classicalguitartablature.blogspot.com/
E|---- 0--------------------------|--------------------------------|
B|---- 0--------------------------|--------------------------------|
G|---- 7--------------------------|--------------------------------|
D|--------------------------------|--------------------------------|
A|--------------------------------|--------------------------------|
E|---------------- 0--------------|--------------------------------|
http://classicalguitartablature.blogspot.com/

0 ความคิดเห็น:

แสดงความคิดเห็น