To celebrate the anniversary, I am giving you (finally...) : iPhone LickByNeck !!!!!!

Stuck In The Middle (BASIC)

Stealers Wheels' tune fingerstyle chord melody guitar BASIC arrangement played in the key of D.

Stuck In The Middle-Stealers Wheels-BASIC Arrangement played in the key of D.
http://classicalguitartablature.blogspot.com/
E|--------------------------------|--------------------------------|
B| 3------------------------------| 3------------------------------|
G| 5------------------------------| 5------------------------------|
D| 4-- 4--------------------------|---- 4--------------------------|
A| 5---- 5-------------- 2--------| 5------ 5-------------- 2------|
E|-------------- 2-- 5-------- 5--|---------------- 2-- 5------ 5--|
http://classicalguitartablature.blogspot.com/
E|--------------------------------|--------------------------------|
B| 3-------------------------- 3--|-------------------- 3-- 1-- 3--|
G| 5-------------------------- 5--|---------------------------- 5--|
D|---- 4---------------------- 4--|---------------------------- 4--|
A| 5------ 5-------------- 2-- 5--|---- 5-- 3---------- 0-- 2------|
E|-------------- 2-- 5------------|---------------- 2--------------|
http://classicalguitartablature.blogspot.com/
http://classicalguitartablature.blogspot.com/
E|--------------------------------|--------------------------------|
B|-------- 3----------------------|-------------------- 3------ 3--|
G|-------- 5-- 5-- 5-- 4-- 4-- 4 2|-------- 2-------------- 5-- 5--|
D|-------- 4-- 4-- 4-- 4-- 4-- 4--|-------- 4------------------ 4--|
A| 5------ 5-------------- 2-- 5--|---- 5-- 3-------------- 2------|
E|---------------- 2-- 5----------|---------------- 2-- 5------ 5--|
http://classicalguitartablature.blogspot.com/
E|--------------------------------|--------------------------------|
B|-------- 3----------------------|-------------------- 6-- 6------|
G|-------- 5-- 5-- 5-- 4-- 4-- 4 2|-------- 2------------------10--|
D|-------- 4-- 4-- 4-- 4-- 4-- 4--|-------- 4------------------ 9--|
A| 5------ 5-------------- 2-- 5--|---- 5-- 3----------------------|
E|---------------- 2-- 5----------|---------------- 2-- 5-- 7--10--|
http://classicalguitartablature.blogspot.com/
E|--------------------------------|--------------------------------|
B|--------------------------------|--------------------------------|
G|-------- 7-- 7-- 7-- 7------10--|-------------------- 7 7--------|
D|----10-- 9-------------- 9-- 9--|---------------------------- 9--|
A|10------10-- 0---------- 0------|10------10----10----------------|
E|---------------- 7-- 8------10--|------------10------10-- 7-- 8--|
http://classicalguitartablature.blogspot.com/
E|--------------------------------|--------------------------------|
B| 3------ 3----------------------|---------------------------- 3--|
G| 5------ 5-- 5-- 5-- 4-- 4-- 4 2|--------------------------------|
D| 4------ 4-- 4-- 4-- 4-- 4-- 4--|--------------------------------|
A| 5------ 5-------------- 2-- 5--|---- 5-- 3------------ 2---- 2--|
E|---------------- 2-- 5----------|---------------- 2-- 5----------|
http://classicalguitartablature.blogspot.com/
E|--------------------------------|--------------------------------|
B|-------- 3---- 3----------------|-------------------- 6------ 3--|
G|------------ 5------ 5------10--|----10--10-- 710-------- 4-- 5--|
D|--------------------------------|---------------------------- 4--|
A|------------ 3-- 4-- 7-- 4------|---- 7-- 8-- 9--10-- 5----------|
E| 5------ 5------------------ 7--| 8---------------------- 3-- 5--|
http://classicalguitartablature.blogspot.com/
E|--------------------------------|--------------------------------|
B|-------- 3----------------------|-------------------- 3------ 3--|
G|-------- 5-- 5-- 5-- 4-- 4-- 4 2|-------- 2-------------- 5-- 5--|
D|-------- 4-- 4-- 4-- 4-- 4-- 4--|-------- 4------------------ 4--|
A| 5------ 5-------------- 2-- 5--|---- 5-- 3-------------- 2------|
E|---------------- 2-- 5----------|---------------- 2-- 5------ 5--|
http://classicalguitartablature.blogspot.com/
E|--------------------------------|--------------------------------|
B|-------- 3----------------------|-------------------- 3------ 3--|
G|-------- 5-- 5-- 5-- 4-- 4-- 4 2|-------- 2-------------- 5-- 5--|
D|-------- 4-- 4-- 4-- 4-- 4-- 4--|-------- 4------------------ 4--|
A| 5------ 5-------------- 2-- 5--|---- 5-- 3-------------- 2------|
E|---------------- 2-- 5----------|---------------- 2-- 5------ 5--|
http://classicalguitartablature.blogspot.com/
E|--------------------------------|--------------------------------|
B|-------- 3----------------------|-------------------- 6-- 6------|
G|-------- 5-- 5-- 5-- 4-- 4-- 4 2|-------- 2------------------10--|
D|-------- 4-- 4-- 4-- 4-- 4-- 4--|-------- 4------------------ 9--|
A| 5------ 5-------------- 2-- 5--|---- 5-- 3----------------------|
E|---------------- 2-- 5----------|---------------- 2-- 5-- 7--10--|
http://classicalguitartablature.blogspot.com/
E|--------------------------------|--------------------------------|
B|--------------------------------|--------------------------------|
G|-------- 7-- 7-- 7-- 7------10--|-------------------- 7 7--------|
D|----10-- 9-------------- 9-- 9--|---------------------------- 9--|
A|10------10-- 0---------- 0------|10------10----10----------------|
E|---------------- 7-- 8------10--|------------10------10-- 7-- 8--|
http://classicalguitartablature.blogspot.com/
E|--------------------------------|--------------------------------|
B| 3------ 3----------------------|---------------------------- 3--|
G| 5------ 5-- 5-- 5-- 4-- 4-- 4 2|--------------------------------|
D| 4------ 4-- 4-- 4-- 4-- 4-- 4--|--------------------------------|
A| 5------ 5-------------- 2-- 5--|---- 5-- 3------------ 2---- 2--|
E|---------------- 2-- 5----------|---------------- 2-- 5----------|
http://classicalguitartablature.blogspot.com/
E|--------------------------------|--------------------------------|
B|-------- 3---- 3----------------|-------------------- 6------ 3--|
G|------------ 5------ 5------10--|----10--10-- 710-------- 4-- 5--|
D|--------------------------------|---------------------------- 4--|
A|------------ 3-- 4-- 7-- 4------|---- 7-- 8-- 9--10-- 5----------|
E| 5------ 5------------------ 7--| 8---------------------- 3-- 5--|
http://classicalguitartablature.blogspot.com/
E|--------------------------------|--------------------------------|
B|-------- 3----------------------|-------------------- 3----------|
G|-------- 5-- 5-- 5-- 4-- 4-- 4 2|-------- 2-------------- 5------|
D|-------- 4-- 4-- 4-- 4-- 4-- 4--|-------- 4----------------------|
A| 5------ 5-------------- 2-- 5--|---- 5-- 3-------------- 2------|
E|---------------- 2-- 5----------|---------------- 2-- 5------ 5--|
http://classicalguitartablature.blogspot.com/
E|--------------------------------|--------------------------------|
B| 6-- 6-- 5-- 3 3------ 3--------| 6-- 6-- 5-- 3-- 3-- 3-- 6-- 3--|
G| 4-- 4------------ 4-------- 4--| 4-- 4--------------------------|
D|--------------------------------|--------------------------------|
A|--------------------------------|---------------------------- 4--|
E| 3-- 3-- 3-- 3-- 3-- 3-- 3-- 2--| 3-- 3-- 3-- 2-- 3-- 3-- 3------|
http://classicalguitartablature.blogspot.com/
E|--------------------------------|--------------------------------|
B| 3------ 3---------- 3------ 3--|-------- 3-------------- 6-- 3--|
G| 5------ 5---------- 5------ 5--|-------- 5----------------------|
D| 4------ 4---------- 4------ 4--|-------- 4----------------------|
A| 5------ 5-------------- 2-- 5--|---- 5-- 3-------------- 2------|
E|---------------- 2-- 5----------|---------------- 2-- 5------ 5--|
http://classicalguitartablature.blogspot.com/
E|--------------------------------|--------------------------------|
B| 6-- 6-- 5-- 3-- 3---------- 6--|---- 6-- 5-- 3-- 3------ 3------|
G| 4-- 4-- 4-- 4-- 4---------- 4--|---- 4-- 4-- 4------ 4----------|
D|--------------------------------|--------------------------------|
A|--------------------------------|---------------------------- 4--|
E| 3-- 3-- 3-- 3-- 3-- 3-- 3-- 2--| 3-- 3-- 3-- 2-- 3-- 3-- 3------|
http://classicalguitartablature.blogspot.com/
E| 5------------------------------|--------------------------------|
B| 7-- 7--------------------------|--------------------------------|
G| 5-- 5------ 7-------- 7---- 7--|--------------------------------|
D|------ 7---- 7-------- 7---- 7--|--------------------------------|
A| 5------------------------------|--------------------------------|
E|--------------------------------|--------------------------------|
http://classicalguitartablature.blogspot.com/
E| 5------------------------------|--------------------------------|
B| 7-- 7--------------------------|--------------------------------|
G| 5-- 5------ 7------ 7------ 7--|--------------------------------|
D|---- 7------ 7------ 7------ 7--|--------------------------------|
A| 0------------------------------|--------------------------------|
E|--------------------------------|--------------------------------|
http://classicalguitartablature.blogspot.com/
E|--------------------------------|--------------------------------|
B|-- 3---- 3---------- 0-- 0------|--------------------------------|
G|-- 5---- 5 5---- 5---------- 2--|--------------------------------|
D|-- 4---- 4-- 4-- 4--------------|--------------------------------|
A| 5------------------------------|--------------------------------|
E|--------------------------------|--------------------------------|
http://classicalguitartablature.blogspot.com/

0 ความคิดเห็น:

แสดงความคิดเห็น