To celebrate the anniversary, I am giving you (finally...) : iPhone LickByNeck !!!!!!

Suburbia (BASIC)

Pet Shop Boys' tune fingerstyle chord melody guitar BASIC arrangement played in the key of Em.

Suburbia-Pet Shop Boys-BASIC Arrangement played in the key of Em.
http://classicalguitartablature.blogspot.com/
E|--------------------------------|--------------------------------|
B|------------ 3------------------|---------- 2--------------------|
G|-------- 0---------- 0------ 0--|-------- 0---------- 0------ 0--|
D|---- 4------------------ 4------|---- 2------------------ 2------|
A|--------------------------------|--------------------------------|
E| 0------------------------------| 0------------------------------|
http://classicalguitartablature.blogspot.com/
E|--------------------------------|--------------------------------|
B|------------ 1---------------- 0|---------- 0--------------------|
G|-------- 0---------- 0---- 0----|-------- 0---------- 0------ 0--|
D|---- 2------------------ 2------|---- 2------------------ 2------|
A|--------------------------------|--------------------------------|
E| 0------------------------------| 0------------------------------|
http://classicalguitartablature.blogspot.com/
http://classicalguitartablature.blogspot.com/
E|---- 0-- 0---- 3---- 0----------|-------- 0-- 3 0----------------|
B|---- 3-- 3-- 3------------------|-------- 0-- 0 0------------ 0--|
G|---- 0-- 0-- 0-------------- 0--|-------- 0-- 0---------- 0------|
D|------------ 2---------- 2------|---- 2-------------- 2----------|
A|--------------------------------| 3------------------------------|
E| 0------------------------------|--------------------------------|
http://classicalguitartablature.blogspot.com/
E|---------------- 0--------------|--------------------------------|
B| 3-- 3-- 3-- 3-- 3-- 3------ 0--|------------ 0-------------- 0--|
G| 2-- 2-- 2-- 2-- 2-- 2----------|-------- 0-------------- 2------|
D| 4-- 4-- 4-- 4------ 4----------|---- 0-------------- 0----------|
A| 5------------------------------|--------------------------------|
E|--------------------------------| 3-------------- 2--------------|
http://classicalguitartablature.blogspot.com/
E|---- 0-- 0---- 3---- 0----------|---- 0-- 0---- 3-- 0------------|
B|---- 3-- 3-- 3------------------|---- 3-- 3-- 3------------------|
G|---- 0-- 0-- 0-------------- 0--|---- 0-- 0-- 0-------------- 0--|
D|------------ 2---------- 2------|------------ 2---------- 2------|
A|--------------------------------| 3------------------------------|
E| 0------------------------------|--------------------------------|
http://classicalguitartablature.blogspot.com/
E|---------------- 0--------------|--------------------------------|
B| 3-- 3-- 3-- 3-- 3-- 3------ 0--|------------ 0---------- 0------|
G| 2-- 2-- 2-- 2-- 2-- 2------ 2--|-------- 2---------- 2----------|
D| 4-- 4-- 4-- 4------ 4----------|---- 2---------- 2---------- 2--|
A| 5------------------------------| 2------------------------------|
E|--------------------------------|--------------------------------|
http://classicalguitartablature.blogspot.com/
E|---- 0-- 0---- 3---- 0----------|-------- 0-- 3 0----------------|
B|---- 3-- 3-- 3------------------|-------- 0-- 0 0------------ 0--|
G|---- 0-- 0-- 0-------------- 0--|-------- 0-- 0---------- 0------|
D|------------ 2---------- 2------|---- 2-------------- 2----------|
A|--------------------------------| 3------------------------------|
E| 0------------------------------|--------------------------------|
http://classicalguitartablature.blogspot.com/
E|---------------- 0--------------|--------------------------------|
B| 3-- 3-- 3-- 3-- 3-- 3------ 0--|------------ 0-------------- 0--|
G| 2-- 2-- 2-- 2-- 2-- 2----------|-------- 0-------------- 2------|
D| 4-- 4-- 4-- 4------ 4----------|---- 0-------------- 0----------|
A| 5------------------------------|--------------------------------|
E|--------------------------------| 3-------------- 2--------------|
http://classicalguitartablature.blogspot.com/
E|---- 0-- 0---- 3---- 0----------|---- 0-- 0---- 3-- 0------------|
B|---- 3-- 3-- 3------------------|---- 3-- 3-- 3------------------|
G|---- 0-- 0-- 0-------------- 0--|---- 0-- 0-- 0-------------- 0--|
D|------------ 2---------- 2------|------------ 2---------- 2------|
A|--------------------------------| 3------------------------------|
E| 0------------------------------|--------------------------------|
http://classicalguitartablature.blogspot.com/
E|---------------- 0--------------|--------------------------------|
B| 3-- 3-- 3-- 3-- 3-- 3------ 0--|------------ 0---------- 0------|
G| 2-- 2-- 2-- 2-- 2-- 2------ 2--|-------- 2---------- 2----------|
D| 4-- 4-- 4-- 4------ 4----------|---- 2---------- 2---------- 2--|
A| 5------------------------------| 2------------------------------|
E|--------------------------------|--------------------------------|
http://classicalguitartablature.blogspot.com/
E|--------------------------------|-------------------- 2----------|
B|------------ 0-------------- 0--| 0---------- 0-------------- 4--|
G|-------- 2-------------- 2------|-------- 1----------------------|
D|---- 1-------------- 1----------|---- 2------------------ 2------|
A| 2-------------- 2--------------|--------------------------------|
E|--------------------------------| 0-------------- 0--------------|
http://classicalguitartablature.blogspot.com/
E|--------------------------------|--------------------------------|
B| 5---------- 5-- 5--------------|--------------------------------|
G| 4------ 4------------ 4--------| 1------ 2-- 2---------- 2-- 2--|
D|---- 6---------------------- 6--|---- 2-- 2-- 2------ 2----------|
A| 4-------------- 4--------------|--------------------------------|
E|--------------------------------| 2-------------- 2--------------|
http://classicalguitartablature.blogspot.com/
E|--------------------------------|-------------------- 2----------|
B|-------- 2----------------------| 0---------- 0-------------- 4--|
G| 1---------- 1------------------|-------- 1----------------------|
D|---- 2------ 1------ 4----------|---- 2------------------ 2------|
A| 0-------------- 2--------------|--------------------------------|
E|--------------------------------| 0-------------- 0--------------|
http://classicalguitartablature.blogspot.com/
E|--------------------------------|--------------------------------|
B| 5---------- 5-- 5--------------|--------------------------------|
G| 4------ 4------------ 4--------| 1------ 2-- 2---------- 2-- 2--|
D|---- 6---------------------- 6--|---- 2-- 2-- 2------ 2----------|
A| 4-------------- 4--------------|--------------------------------|
E|--------------------------------| 2-------------- 2--------------|
http://classicalguitartablature.blogspot.com/
E|--------------------------------|--------------------------------|
B|-------- 2----------------------|------------ 0-------- 0---- 3--|
G| 1---------- 1------------------|-------- 1----------------------|
D|---- 2------ 1------ 4------ 2--|---- 2-------------- 2----------|
A| 0-------------- 2--------------|--------------------------------|
E|--------------------------------| 0-------------- 0--------------|
http://classicalguitartablature.blogspot.com/
E| 0------ 3-- 0------------------| 0------ 3-- 0------------------|
B| 0------ 0-- 0-------- 0---- 3--| 0------ 0-- 0-------- 0---- 3--|
G|------------ 0------------------|------------ 0------------------|
D|---- 2-------------- 2----------|---- 2-------------- 2----------|
A|--------------------------------|--------------------------------|
E| 0------ 0------ 0---- 0--------| 0------ 0------ 0---- 0--------|
http://classicalguitartablature.blogspot.com/
E| 0------ 3-- 0---- 3------------| 0---- 3------ 0----------------|
B| 0------ 0---- 0-- 0-- 0---- 3 0|-------- 0-------------- 0-- 3--|
G| 0-------- 0--------------------|-------- 0----------------------|
D|---- 2--------------------------|---- 2---- 2-------- 2----------|
A| 3------ 3---- 3------ 3--------| 3------ 3------ 3------ 3------|
E|--------------------------------|--------------------------------|
http://classicalguitartablature.blogspot.com/
E|-------- 7-- 5------ 3------ 0--|------ 7---- 5------ 3----------|
B|-------- 0-- 0------------------|------------ 0------ 0----------|
G|---- 0--------------------------|---- 0---------------------- 9--|
D|--------------------------------|--------------------------------|
A|--------------------------------|--------------------------------|
E| 0------ 0------ 0------ 0------| 0------ 0------ 0------ 0------|
http://classicalguitartablature.blogspot.com/
E|-------- 7----------------------|10-- 7--------------------------|
B|------------10------ 8----------| 8-- 8------10------ 8----------|
G|-------------------- 9----------| 9-- 9------ 9------ 9----------|
D|----10--------------------------|--------------------------------|
A|--------------------------------|--------------------------------|
E| 8------ 8------ 8------ 8------| 8------ 8------ 8------ 8------|
http://classicalguitartablature.blogspot.com/
E|-------- 7-- 5------ 3------ 0--|------ 7---- 5------ 3----------|
B|-------- 0-- 0------------------|------------ 0------ 0----------|
G|---- 0--------------------------|---- 0---------------------- 9--|
D|--------------------------------|--------------------------------|
A|--------------------------------|--------------------------------|
E| 0------ 0------ 0------ 0------| 0------ 0------ 0------ 0------|
http://classicalguitartablature.blogspot.com/
E|-------- 7----------------------|10-- 7--------------------------|
B|------------10------ 8----------| 8-- 8------10------ 8----------|
G|-------------------- 9----------| 9-- 9------ 9------ 9----------|
D|----10--------------------------|--------------------------------|
A|--------------------------------|--------------------------------|
E| 8------ 8------ 8------ 8------| 8------ 8------ 8------ 8------|
http://classicalguitartablature.blogspot.com/
E|10-- 7--------------------------|10-- 7--------------------------|
B| 8-- 8------10------ 8----------| 8-- 8------10------ 8----------|
G| 9-- 9------ 9------ 9----------| 9-- 9------ 9------ 9----------|
D|--------------------------------|--------------------------------|
A|--------------------------------|--------------------------------|
E| 0------------------------------| 0------------------------------|
http://classicalguitartablature.blogspot.com/
E|-------------------- 2----------|--------------------------------|
B| 0---------- 0-------------- 4--| 5---------- 5-- 5--------------|
G|-------- 1----------------------| 4------ 4------------ 4--------|
D|---- 2------------------ 2------|---- 6---------------------- 6--|
A|--------------------------------| 4-------------- 4--------------|
E| 0-------------- 0--------------|--------------------------------|
http://classicalguitartablature.blogspot.com/
E|--------------------------------|--------------------------------|
B|--------------------------------|-------- 2----------------------|
G| 1------ 2-- 2---------- 2-- 2--| 1---------- 1------------------|
D|---- 2-- 2-- 2------ 2----------|---- 2------ 1------ 4----------|
A|--------------------------------| 0-------------- 2--------------|
E| 2-------------- 2--------------|--------------------------------|
http://classicalguitartablature.blogspot.com/
E|-------------------- 2----------|--------------------------------|
B| 0---------- 0-------------- 4--| 5---------- 5-- 5--------------|
G|-------- 1----------------------| 4------ 4------------ 4--------|
D|---- 2------------------ 2------|---- 6---------------------- 6--|
A|--------------------------------| 4-------------- 4--------------|
E| 0-------------- 0--------------|--------------------------------|
http://classicalguitartablature.blogspot.com/
E|--------------------------------|--------------------------------|
B|--------------------------------|-------- 2----------------------|
G| 1------ 2-- 2---------- 2-- 2--| 1---------- 1------------------|
D|---- 2-- 2-- 2------ 2----------|---- 2------ 1------ 4----------|
A|--------------------------------| 0-------------- 2--------------|
E| 2-------------- 2--------------|--------------------------------|
http://classicalguitartablature.blogspot.com/
E|--------------------------------|--------------------------------|
B|-------- 2----------------------|-------- 2----------------------|
G| 1---------- 1------------------| 1---------- 1------------------|
D|---- 2------ 1------ 4----------|---- 2------ 1------ 4----------|
A| 0-------------- 2--------------| 0-------------- 2--------------|
E|--------------------------------|------------------------------ 0|
http://classicalguitartablature.blogspot.com/
E|--------------------------------|--------------------------------|
B|------------------ 4------------|--------------------------------|
G|------------ 6------------------|--------------------------------|
D|------ 5------------------------|--------------------------------|
A| 7------------------------------|--------------------------------|
E|--------------------------------|--------------------------------|
http://classicalguitartablature.blogspot.com/

0 ความคิดเห็น:

แสดงความคิดเห็น