To celebrate the anniversary, I am giving you (finally...) : iPhone LickByNeck !!!!!!

The Idiana Jones Theme (SIMPLIFIED)

The Idiana Jones Theme fingerstyle chord melody guitar SIMPLIFIED arrangement played in the key of A.

The Indiana Jones Theme-SIMPLIFIED ARRANGEMENT played in the key of A.
http://classicalguitartablature.blogspot.com/
E|--------------------------------|--------------------------------|
B| 2-------- 2-- 2 2--------------| 2-------- 2-- 2 2--------------|
G| 2---------- 2 2 2--------------| 2-------- 2---- 2--------------|
D| 2-------- 2-- 2 2--------------| 2-------- 2---- 2--------------|
A| 0------------------ 0----------| 0------------------ 0----------|
E|--------------------------------|--------------------------------|
http://classicalguitartablature.blogspot.com/
E|--------------------------------|--------------------------------|
B| 2-------- 2-- 2 2--------------| 2-------- 2-- 2 2------ 2-- 3--|
G| 2-------- 2---- 2--------------| 2-------- 2---- 2--------------|
D| 2-------- 2---- 2--------------| 2-------- 2---- 2--------------|
A| 0------------------ 0----------| 0------------------ 0----------|
E|--------------------------------|--------------------------------|
http://classicalguitartablature.blogspot.com/
http://classicalguitartablature.blogspot.com/
E|---- 5--------------------------|---------------------------- 2--|
B| 5-- 5---------------------- 2--| 3-------------------- 5---- 3--|
G| 2-- 2------------------ 4------| 2-------------------- 2------ 9|
D| 2------------------------------| 4-------------------- 4--------|
A| 0------ 0------ 0------ 0------| 0------ 0------ 0---- 0--------|
E|--------------------------------|--------------------------------|
http://classicalguitartablature.blogspot.com/
E|----10--------------------------|---------------- 9--------------|
B| 9-- 9---------------------- 9--|10------12------10--------------|
G|---- 9--------------------11----| 9------ 9------ 9------------ 9|
D| 9---------------------- 9------|11------11--------------11--1211|
A| 0------ 0------ 0------ 0------| 0------ 0------ 0------ 0------|
E|--------------------------------|--------------------------------|
http://classicalguitartablature.blogspot.com/
E|---------------------------- 910|---------------------- 0---- 0--|
B|----10----------------12--------| 6------------------------------|
G|---------------------- 9--------| 7------------------------------|
D|----------------------11--------|--------------------------------|
A| 0------ 0------ 0------ 0------|--------------------------------|
E|--------------------------------| 6------ 6------ 6--------------|
http://classicalguitartablature.blogspot.com/
E| 9---- 7------ 9------ 7--------| 9---- 7------ 9---- 7----------|
B| 7---- 7-------------- 7--------| 7---- 7------------------------|
G| 7---------- 9-------- 7---- 9--| 7---- 7---- 9---------- 6-- 7--|
D|--------------------------------|--------------------------------|
A|--------------------------------|--------------------------------|
E|------ 0-------------- 0--------|------ 0------------------------|
http://classicalguitartablature.blogspot.com/
E|---- 5--------------------------|---------------------------- 2--|
B| 5-- 5---------------------- 2--| 3-------------------- 5---- 3--|
G| 2-- 2------------------ 4------| 2-------------------- 2------ 9|
D| 2------------------------------| 4-------------------- 4--------|
A| 0------ 0------ 0------ 0------| 0------ 0------ 0---- 0--------|
E|--------------------------------|--------------------------------|
http://classicalguitartablature.blogspot.com/
E|----10--------------------------|---------------- 9--------------|
B| 9-- 9---------------------- 9--|10------12------10--------------|
G|---- 9--------------------11----| 9------ 9------ 9------------ 9|
D| 9---------------------- 9------|11------11--------------11--1211|
A| 0------ 0------ 0------ 0------| 0------ 0------ 0------ 0------|
E|--------------------------------|--------------------------------|
http://classicalguitartablature.blogspot.com/
E|---------------------------- 910|---------------------- 0---- 0--|
B|----10----------------12--------| 6------------------------------|
G|---------------------- 9--------| 7------------------------------|
D|----------------------11--------|--------------------------------|
A| 0------ 0------ 0------ 0------|--------------------------------|
E|--------------------------------| 6------ 6------ 6--------------|
http://classicalguitartablature.blogspot.com/
E| 9---- 7------ 9------ 7------ 9|------ 7------ 9-- 7------------|
B| 7---- 7-------------- 7------ 7|------ 7------------------ 5----|
G| 7---------- 9-------- 7---- 9 7|------------ 9-------- 6--------|
D|--------------------------------|--------------------------------|
A|--------------------------------|--------------------------------|
E|------ 0-------------- 0--------|------ 0------------------------|
http://classicalguitartablature.blogspot.com/
E|--------------------------------|---- 9--------------------------|
B| 3-------------------------- 3--|-- 5------------------------ 5--|
G| 4---------------------- 4------| 6---------------------- 6------|
D| 5---------------------- 5------| 7---------------------- 7------|
A| 0------ 0------ 0------ 0------| 0------ 0------ 0------ 0------|
E|--------------------------------|--------------------------------|
http://classicalguitartablature.blogspot.com/
E|--------------------------------|---- 9------------------ 7-- 9--|
B| 3-------------------------- 3--|-- 5-------------------- 5------|
G| 4---------------------- 4------| 6---------------------- 6------|
D| 5---------------------- 5------| 7------------------------------|
A| 0------ 0------ 0------ 0------| 0------ 0------ 0------ 0------|
E|--------------------------------|--------------------------------|
http://classicalguitartablature.blogspot.com/
E|10---------------------- 7--10--| 8 7 5------------------ 5-- 8--|
B| 8---------------------- 8-- 8--| 6 6 6------------------ 6-- 6--|
G| 7---------------------- 7-- 7--| 5 5 5------------------ 5-- 5--|
D|--------------------------------|--------------------------------|
A| 0------ 0------ 0------ 0------| 0------ 0------ 0------ 0------|
E|--------------------------------|--------------------------------|
http://classicalguitartablature.blogspot.com/
E| 7---------- 7---------- 7-- 5 4| 5------------------------------|
B| 5-- 5 4 5-- 5-- 5 4 5-- 5-- 5 5| 3---------------------- 2-- 5--|
G| 4-- 4-- 4-- 4-- 4-- 4-- 4---- 4| 2---------------------- 2------|
D|---- 6-- 6------ 6-- 6----------|------------------------ 4------|
A| 0------ 0------ 0------ 0------| 0------ 0------ 0------ 0------|
E|--------------------------------|--------------------------------|
http://classicalguitartablature.blogspot.com/
E|--------------------------------|---- 9--------------------------|
B| 3-------------------------- 3--|--------------------------------|
G| 4---------------------- 4------|-- 9------------------------ 9--|
D| 5---------------------- 5----11|------------------------11------|
A| 0------ 0------ 0------ 0------| 8------ 9------ 9------ 9------|
E|--------------------------------|--------------------------------|
http://classicalguitartablature.blogspot.com/
E|--------------------------------|---------------------------- 0--|
B| 3-------------------------- 3--| 1 0-------------------- 2------|
G| 4---------------------- 4------| 2-- 2------------------ 2------|
D| 5---------------------- 5------| 3---------------------- 2------|
A| 0------ 0------ 0------ 0------| 0------ 0------ 0------ 0------|
E|--------------------------------|--------------------------------|
http://classicalguitartablature.blogspot.com/
E|--------------------------------|---- 9---------------------- 9--|
B| 3-------------------------- 3--|------------------------12------|
G| 4---------------------- 4------|-- 9------------------ 9--------|
D| 5---------------------- 5------|11--------------------11--------|
A| 0------ 0------ 0------ 0------| 9------ 9---- 9-------- 9------|
E|--------------------------------|--------------------------------|
http://classicalguitartablature.blogspot.com/
E|10----------10--------10-- 8 7--| 8------------------------ 5-- 5|
B| 8 8-- 7 8-- 8 8-- 7 8---- 8----| 6------------------------------|
G| 7 7---- 7---- 7------ 7--------| 5------------------------------|
D|-- 9---- 9----------------------|--------------------------------|
A|-------- 0------ 0------ 0------| 0------ 0------ 0------ 0------|
E| 0------------------------------|--------------------------------|
http://classicalguitartablature.blogspot.com/
E|10----------10--------10-- 8 7--| 8------------------------ 5-- 5|
B| 8 8-- 7 8-- 8 8-- 7 8---- 8----| 6------------------------------|
G| 7 7---- 7---- 7------ 7--------| 5------------------------------|
D|-- 9---- 9----------------------|--------------------------------|
A|-------- 0------ 0------ 0------| 0------ 0------ 0------ 0------|
E| 0------------------------------|--------------------------------|
http://classicalguitartablature.blogspot.com/
E|10----------10----------10-- 8 7| 8---------- 8-------- 8-- 8--10|
B| 8 8-- 7 8-- 8-- 8 7 8-- 8------| 6-- 6-- 6------ 6 5 6 6--------|
G| 7 7---- 7-- 7-- 7------ 7------| 5-- 5-- 5-- 5-- 5--------------|
D|---------------- 9--------------|---------------- 6--------------|
A| 7------ 7------ 7------ 7------| 5------ 5------ 5------ 5------|
E|--------------------------------|--------------------------------|
http://classicalguitartablature.blogspot.com/
E|12------------------------------|--------------------------------|
B|14------14------14--------------|------------------------ 2-- 3--|
G|13------13------13------13------|13------13------13--------------|
D|--------14------14------14------|14------14------14--------------|
A| 0------ 0------ 0------ 0------| 0------ 0------ 0--------------|
E|--------------------------------|--------------------------------|
http://classicalguitartablature.blogspot.com/
E|---- 5--------------------------|---------------------------- 2--|
B| 5-- 5---------------------- 2--| 3-------------------- 5---- 3--|
G| 2-- 2------------------ 4------| 2-------------------- 2------ 9|
D| 2------------------------------| 4-------------------- 4--------|
A| 0------ 0------ 0------ 0------| 0------ 0------ 0---- 0--------|
E|--------------------------------|--------------------------------|
http://classicalguitartablature.blogspot.com/
E|----10--------------------------|---------------- 9--------------|
B| 9-- 9---------------------- 9--|10------12------10--------------|
G|---- 9--------------------11----| 9------ 9------ 9------------ 9|
D| 9---------------------- 9------|11------11--------------11--1211|
A| 0------ 0------ 0------ 0------| 0------ 0------ 0------ 0------|
E|--------------------------------|--------------------------------|
http://classicalguitartablature.blogspot.com/
E|---------------------------- 910|---------------------- 0---- 0--|
B|----10----------------12--------| 6------------------------------|
G|---------------------- 9--------| 7------------------------------|
D|----------------------11--------|--------------------------------|
A| 0------ 0------ 0------ 0------|--------------------------------|
E|--------------------------------| 6------ 6------ 6--------------|
http://classicalguitartablature.blogspot.com/
E| 9---- 7------ 9------ 7------ 9|------ 7------10------ 9-- 7--10|
B| 7---- 7-------------- 7--------|------ 7------ 7------ 7------10|
G| 7---------- 9-------- 7---- 9 7|------ 7---- 9-------- 7------ 9|
D|--------------------------------|--------------------------------|
A|--------------------------------|------------------------------ 0|
E|------ 0-------------- 0--------|------ 0-------------- 0--------|
http://classicalguitartablature.blogspot.com/
E|------ 9------------------------|--------------------------------|
B|------------12 3------ 2--------|--------------------------------|
G|-------------- 2------ 2---- 4--|---------------- 2--------------|
D|-------------- 2------ 2--------| 0-------------- 2--------------|
A|------ 0------ 0------ 0--------| 0------ 4-- 2-- 0--------------|
E|--------------------------------|--------------------------------|
http://classicalguitartablature.blogspot.com/

0 ความคิดเห็น:

แสดงความคิดเห็น