To celebrate the anniversary, I am giving you (finally...) : iPhone LickByNeck !!!!!!

The Phantom Of The Opera (BASIC)

Michael Crawford And Sarah Brightman's tune fingerstyle chord melody guitar BASIC arrangement played in the key of Em.

The Phantom Of The Opera-Michael Crawford And Sarah Brightman-BASIC Arrangement played in the key of Em.
http://classicalguitartablature.blogspot.com/
E|--------------------------------|--------------------------------|
B|--------------------------------|--------------------------------|
G| 9-------- 9---------- 9------ 9|-------------- 9-- 8-- 7-- 6-- 5|
D| 9-------- 9------------------ 9|-------------- 9-- 8-- 7-- 6-- 5|
A| 7 7-- 7-- 7-- 7-- 7-- 7-- 7-- 7|-- 7-- 7-- 7---- 7 6-- 5-- 4-- 3|
E|--------------------------------|--------------------------------|
http://classicalguitartablature.blogspot.com/
E|--------------------------------|--------------------------------|
B|--------------------------------|--------------------------------|
G|------------ 5---------- 5 5-- 3|-- 5------------ 5-- 6-- 7-- 8--|
D|------------ 5---------- 5 5-- 3|-- 5------------ 5-- 6-- 7-- 8--|
A|---- 3-- 3-- 3-- 3-- 3-- 3-- 3--|---- 3 3---- 3-- 3-- 4-- 5-- 6--|
E|--------------------------------| 6------------------------------|
http://classicalguitartablature.blogspot.com/
http://classicalguitartablature.blogspot.com/
E|--------------------------------|--------------------------------|
B|--------------------------------|--------------------------------|
G| 9---------- 9-------- 9--------|-- 9-------- 9 9-- 8-- 7-- 6-- 5|
D| 9---------- 9-------- 9--------|---- 9------ 9 9-- 8-- 7-- 6-- 5|
A|---- 7-- 7-- 7-- 7-- 7-- 7 7----| 7-- 7-- 7-- 7-- 7 6-- 5---- 4 3|
E| 0------------------------------|--------------------------------|
http://classicalguitartablature.blogspot.com/
E|--------------------------------|--------------------------------|
B|--------------------------------|--------------------------------|
G|------------ 5---------- 5 5-- 3|-- 5------------ 5-- 6-- 7-- 8 0|
D|------------ 5---------- 5 5-- 3|-- 5------------ 5-- 6-- 7-- 8--|
A|---- 3-- 3-- 3-- 3-- 3-- 3-- 3--|---- 3 3---- 3-- 3-- 4-- 5-- 6--|
E|--------------------------------| 6---------------------------- 0|
http://classicalguitartablature.blogspot.com/
E| 0------------------------------|-------------- 0----------------|
B| 0---------- 0------------------|-------- 0-------------- 0------|
G|-------- 0---------- 0------ 0--|------------ 0------ 0------ 0--|
D|---- 2---------- 2------ 2------|---- 2--------------------------|
A|--------------------------------|------------------------------ 0|
E|--------------------------------| 0------------------------------|
http://classicalguitartablature.blogspot.com/
E|--------------------------------|--------------------------------|
B| 3---------- 1-- 1---------- 1--|---------------- 3--------------|
G| 0------ 0-- 0-- 0------ 0------|-------- 2-------------- 2------|
D| 2-- 2------ 2------ 2----------|---- 4------ 4------ 4------ 4 2|
A|--------------------------------| 5------------------------------|
E|--------------------------------|------------------------------ 0|
http://classicalguitartablature.blogspot.com/
E|---------- 0--------------------|-------------- 0----------------|
B| 0-------------------- 0--------|------ 0---------------- 0------|
G| 0------ 0-------- 0-------- 0--|------------ 0------------------|
D|---- 2---------- 2--------------|---- 2-------------- 2------ 2--|
A|--------------------------------|------------------------------ 0|
E|--------------------------------| 0------------------------------|
http://classicalguitartablature.blogspot.com/
E|--------------------------------|--------------------------------|
B| 3---------- 1-- 1---------- 1--|---------------- 3--------------|
G| 0------ 0-- 0-- 0------ 0------|-------- 2-------------- 2------|
D| 2-- 2------ 2------ 2----------|---- 4------ 4------ 4------ 4 2|
A|--------------------------------| 5------------------------------|
E|--------------------------------|------------------------------ 0|
http://classicalguitartablature.blogspot.com/
E|--------------------------------|---------------- 0------ 3------|
B| 0---------- 0---------- 0------|-------- 0----------------------|
G| 0------ 0---------- 0----------|------------------------------ 5|
D|---- 2---------- 2---------- 2--|---- 2------ 2------ 2----------|
A|--------------------------------|--------------------------------|
E|--------------------------------| 0---------------------------- 8|
http://classicalguitartablature.blogspot.com/
E| 7---------- 5-- 5--------------|----------------10--------------|
B| 5-------------------------- 5--|--------10--------------10------|
G|------ 5---------------- 5------|--------11-------------------- 0|
D|-- 5---------------- 5----------|----12------12------12------12--|
A|--------------------------------|--------------------------------|
E|--------------------------------|10---------------------------- 0|
http://classicalguitartablature.blogspot.com/
E| 7------------------------------|------------------------ 7------|
B| 0---------- 0-------------- 0--|------------ 0------------------|
G|-------- 0------ 0------ 0------|-------- 0------ 0--------------|
D|---- 0-------------- 0----------|---- 0-------------- 0----------|
A|--------------------------------|--------------------------------|
E|--------------------------------| 0------------------------------|
http://classicalguitartablature.blogspot.com/
E|12------------------------------|----10-- 8 7--------------------|
B|------------ 0-------------- 0--|--------------10---- 8-- 7------|
G|-------- 0------ 0---- 0--------|---------------------------- 9--|
D|---- 0------------ 0------------|--------------------------------|
A|--------------------------------|--------------------------------|
E| 0------------------------------| 0------------------------------|
http://classicalguitartablature.blogspot.com/
E|--------------------------------|--------------------------------|
B| 4-------- 4------------ 4------|------ 1------ 1------------ 0--|
G| 2------ 2---------- 2----------|------ 2---------------- 2------|
D|---- 4---------- 4--------------|-- 1------ 1------ 1---------- 9|
A| 3------------------------------| 3------------------------------|
E|--------------------------------|------------------------------ 0|
http://classicalguitartablature.blogspot.com/
E|--------------------------------|--------------------------------|
B| 0---------- 0---------- 0------|---------- 0--------------------|
G| 9------ 9-------- 9-------- 9--|-------- 9---- 9-- 8-- 7-- 6-- 5|
D|---- 9---------- 9--------------|---- 9-------- 9-- 8---- 6-- 6 5|
A|--------------------------------|---------------- 7-- 6-- 5-- 4--|
E|--------------------------------| 0------------------------------|
http://classicalguitartablature.blogspot.com/
E|--------------------------------|--------------------------------|
B|--------------------------------|--------------------------------|
G|-------- 5------ 5------ 5------| 3-- 5------ 5-- 8-- 7-- 6-- 5--|
D|---- 5------ 5------ 5------ 5--| 3-- 5------ 5-- 8-- 7-- 6-- 5--|
A| 3------------------------------|---- 3---------- 6-- 5-- 4-- 3--|
E|--------------------------------| 6------------------------------|
http://classicalguitartablature.blogspot.com/
E|--------------------------------|-------------- 5-------------- 3|
B|--------------------------------|------ 5-------------- 5------ 6|
G| 2-------- 2---------- 2------ 2|------ 5-------------- 5--------|
D| 2-------- 2--------------------|--------------------------------|
A| 0-- 0-- 0-- 0-- 0 0---- 0 0----| 0 0---- 0-- 0 0---- 0-- 0-- 0--|
E|--------------------------------|--------------------------------|
http://classicalguitartablature.blogspot.com/
E|--------------------------------|---------------- 3--------------|
B|------------ 6-- 6--------------|-------- 3------ 3---------- 3--|
G| 5---------- 5-- 5--------------|-------- 4---------------- 4----|
D|------------ 3-- 3--------------|-------- 5----------------------|
A| 5-- 5-- 5-- 5-- 5-- 5-- 5-- 5--|--------------------------------|
E|--------------------------------| 3-- 3-- 3-- 3-- 3-- 3-- 3-- 3--|
http://classicalguitartablature.blogspot.com/
E| 0------------------------------|-------------- 5-------------- 3|
B| 1------------------------------|------ 5------ 5------ 5------ 6|
G| 2---------- 2-------- 2------ 2|---------------------- 5--------|
D|------------ 2------------------|------ 7------------------------|
A| 0-- 0-- 0-- 0-- 0-- 0-- 0-- 0--| 0 0---- 0-- 0-- 0-- 0-- 0-- 0--|
E|--------------------------------|--------------------------------|
http://classicalguitartablature.blogspot.com/
E|--------------------------------|---------------- 3--------------|
B|------------ 6-- 6--------------|-------- 3------ 3---------- 3--|
G| 5---------- 5-- 5--------------|-------- 4---------------- 4----|
D|------------ 3-- 3--------------|-------- 5----------------------|
A| 5-- 5-- 5-- 5-- 5-- 5-- 5-- 5--|--------------------------------|
E|--------------------------------| 3-- 3-- 3-- 3-- 3-- 3-- 3-- 3--|
http://classicalguitartablature.blogspot.com/
E| 0------------------------------|--------------------------------|
B| 1---------- 1---------- 1------| 1-------------------- 1--------|
G| 2---------- 2---------- 2---- 2|---------------- 2--------------|
D|--------------------------------|------ 2------------------------|
A| 0-- 0-- 0-- 0-- 0-- 0-- 0-- 0--| 0-- 0-- 0-- 0-- 0-- 0-- 0-- 0--|
E|--------------------------------|--------------------------------|
http://classicalguitartablature.blogspot.com/
E| 0------------------------------|-------------- 3----------------|
B| 1---------- 3-- 3--------------|-------- 3------ 3---------- 3--|
G| 2---------- 2-- 2--------------|-------- 0------------------ 0--|
D|------------ 3-- 3--------------|-------- 0----------------------|
A|--------------------------------|--------------------------------|
E| 1-- 1-- 1-- 1-- 1-- 1-- 1-- 1--| 3-- 3-- 3-- 3-- 3-- 3-- 3-- 3--|
http://classicalguitartablature.blogspot.com/
E| 0------------------------------|------------------------ 0------|
B| 1---------- 1---------- 1------|--------------------------------|
G| 2---------- 2---------- 2------| 2---------- 2------------------|
D|------------------------ 2------| 2---------- 2------------------|
A| 0-- 0-- 0-- 0-- 0-- 0-- 0-- 0--| 0-- 0-- 0-- 0-- 0-- 0-- 0-- 0--|
E|--------------------------------|--------------------------------|
http://classicalguitartablature.blogspot.com/
E| 5------------------------------|-- 3-- 1-- 0--------------------|
B| 5---------- 5---------- 5------|-- 1-- 1-- 1-- 3-- 1-- 0--------|
G| 2---------- 2---------- 2------|-- 2-- 2-- 2-- 2-- 2------ 2-- 1|
D|------------ 2---------- 2------|------------------------------ 3|
A| 0-- 0-- 0-- 0-- 0-- 0-- 0-- 0--| 0-- 0-- 0-- 0-- 0 0---- 0 0----|
E|--------------------------------|--------------------------------|
http://classicalguitartablature.blogspot.com/
E|--------------------------------|--------------------------------|
B|--------------------------------|--------------------------------|
G|--------------------------------| 1------------------------------|
D|------------ 3---------- 3------| 3------ 3------ 3---------- 2--|
A| 5-- 5-- 5-- 5-- 5-- 5-- 5-- 5--|--------------------------------|
E|--------------------------------| 4-- 4-- 4-- 4-- 4-- 4-- 4-- 4--|
http://classicalguitartablature.blogspot.com/
E|--------------------------------|--------------------------------|
B|--------------------------------|--------------------------------|
G|--------------------------------| 2---------- 2-- 2--------------|
D| 2---------- 2-------- 2--------| 2---------- 2-- 2-- 6-- 5-- 4--|
A| 0-- 0-- 0-- 0-- 0-- 0 0---- 0--| 0-- 0-- 0-- 0-- 0-- 6-- 5-- 4--|
E|--------------------------------|-------------------- 4-- 3-- 2--|
http://classicalguitartablature.blogspot.com/
E|--------------------------------|------------------------ 5------|
B|--------------------------------|--------------------------------|
G|--------------------------------|--------------------------------|
D| 3---------- 3---------- 3------| 3---------- 3-- 3-- 4----------|
A|--------------------------------|--------------------------------|
E| 1-- 1-- 1-- 1-- 1-- 1-- 1-- 1--| 1-- 1-- 1-- 1-- 1 2---- 3-- 4--|
http://classicalguitartablature.blogspot.com/
E| 5---------------------- 7------| 7---------- 5------------------|
B| 5---------- 5------------------| 5--------------10----------10--|
G| 5---------- 5------------------| 5------------------------------|
D|--------------------------------|--------------------------------|
A| 0-- 0-- 0-- 0-- 0-- 0-- 0-- 0--| 0-- 0-- 0-- 0--12--11--10-- 9--|
E|--------------------------------|--------------------------------|
http://classicalguitartablature.blogspot.com/
E|----------------12--------------|--------------------------------|
B|10------------------------------|----------------------10--------|
G| 9------------------------------| 9------------------------------|
D|--------------------------------|10------------------------------|
A| 8-- 8-- 8-- 8-- 8-- 8-- 8-- 8--| 8-- 8-- 8-- 8-- 8-- 9--10--11--|
E|--------------------------------|--------------------------------|
http://classicalguitartablature.blogspot.com/
E| 5---------------------- 7------| 7---------- 5------------------|
B| 5---------- 5------------------| 5--------------10----------10--|
G| 5---------- 5------------------| 5------------------------------|
D|--------------------------------|--------------------------------|
A| 0-- 0-- 0-- 0-- 0-- 0-- 0-- 0--| 0-- 0-- 0-- 0--12--11--10-- 9--|
E|--------------------------------|--------------------------------|
http://classicalguitartablature.blogspot.com/
E|----------------12--------------|--------------------------------|
B|10------------------------------|----------------------10--------|
G| 9------------------------------| 9------------------------------|
D|--------------------------------|10------------------------------|
A| 8-- 8-- 8-- 8-- 8-- 8-- 8-- 8--| 8-- 8-- 8-- 8-- 8-- 9--10--11--|
E|--------------------------------|--------------------------------|
http://classicalguitartablature.blogspot.com/
E| 8---------------------- 7---- 5|---------- 7--------------------|
B| 5---------- 5---------- 5---- 5|---------- 5--10------ 8------10|
G| 5---------- 5---------- 5---- 5|------------ 5------------------|
D|------------ 5------------------|--------------------------------|
A| 0-- 0-- 0-- 0-- 0-- 0-- 0-- 0--| 0-- 0-- 0-- 0--1211----10-- 9--|
E|--------------------------------|--------------------------------|
http://classicalguitartablature.blogspot.com/
E|---------------- 8--------------|--------------------------------|
B|--------------10----------------|--------------------------------|
G| 9---------------------------- 9|----------------10--11--12--13--|
D|10------------------------------|----------------10--11--12--13--|
A| 8 8-- 8---- 8-- 8-- 8-- 8-- 8--| 8 8---- 8-- 8-- 8-- 9--10--11--|
E|--------------------------------|--------------------------------|
http://classicalguitartablature.blogspot.com/
E| 8---------------------- 7---- 5|---------- 7--------------------|
B| 5---------- 5---------- 5---- 5|---------- 5--10------ 8------10|
G| 5---------- 5---------- 5---- 5|------------ 5------------------|
D|------------ 5------------------|--------------------------------|
A| 0-- 0-- 0-- 0-- 0-- 0-- 0-- 0--| 0-- 0-- 0-- 0--1211----10-- 9--|
E|--------------------------------|--------------------------------|
http://classicalguitartablature.blogspot.com/
E|---------------- 8--------------|--------------------------------|
B|--------------10----------------|--------------------------------|
G| 9---------------------------- 9|----------------10--11--12--13--|
D|10------------------------------|----------------10--11--12--13--|
A| 8 8-- 8---- 8-- 8-- 8-- 8-- 8--| 8 8---- 8-- 8-- 8-- 9--10--11--|
E|--------------------------------|--------------------------------|
http://classicalguitartablature.blogspot.com/
E| 8------------------------------|------------------------------ 8|
B| 5------------------------------|------------------------------10|
G| 5---------- 5---------- 5------| 5--------------14--13--12--11--|
D|------------ 7------------------| 7--------------14--13--12--11--|
A| 0-- 0-- 0-- 0-- 0-- 0-- 0-- 0--| 0-- 0-- 0-- 0--12--11--10-- 9--|
E|--------------------------------|--------------------------------|
http://classicalguitartablature.blogspot.com/
E|--------------------------------|--------------------------------|
B|--------------------------------|--------------------------------|
G| 9---------- 9---------- 9---- 9|------------ 910----1112----13--|
D|------------10----------10------|10--------------10--1112----13--|
A| 8-- 8-- 8-- 8-- 8 8---- 8-- 8--| 8-- 8-- 8-- 8-- 8-- 9--10--11--|
E|--------------------------------|--------------------------------|
http://classicalguitartablature.blogspot.com/
E| 8------------------------------|--------------------------------|
B| 5------------------------------|--------------------------------|
G| 5---------- 5---------- 5------| 5--------------14--13--12--11--|
D|------------ 7------------------| 7--------------14--13--12--1110|
A| 0-- 0-- 0-- 0-- 0-- 0-- 0-- 0--| 0-- 0-- 0-- 0--12--11--10-- 9--|
E|--------------------------------|--------------------------------|
http://classicalguitartablature.blogspot.com/
E|12------------------------------|--------------------------------|
B|10------------------------------|--------------------------------|
G|11------------------------------|--------------------------------|
D|--------------------------------|--------------------------------|
A|---------------- 0--------------|--------------------------------|
E|--------------------------------|--------------------------------|
http://classicalguitartablature.blogspot.com/

0 ความคิดเห็น:

แสดงความคิดเห็น