To celebrate the anniversary, I am giving you (finally...) : iPhone LickByNeck !!!!!!

When The Children Cry (BASIC)

White Lion's tune fingerstyle chord melody guitar BASIC arrangement played in the key of Em.

When The Children Cry - White Lion -BASIC ARRANGEMENT played in the key of Em.
http://classicalguitartablature.blogspot.com/
E| 0------------12--------------10|---------------- 8---- 7--------|
B|---- 0---- 0------ 0------ 0----|-- 0------ 0-------- 0---- 0----|
G|------ 0-------------- 0--------|------ 0------------------------|
D|--------------------------------|--------------------------------|
A|--------------------------------|--------------------------------|
E| 0------------------------------|--------------------------------|
http://classicalguitartablature.blogspot.com/
E|10-------------- 8--------------| 7-------------- 3------ 2------|
B|---- 0------ 0------ 0------ 0--|---- 0---- 0-------- 0------ 0--|
G|------ 0---------------- 0------|-------- 0----------------------|
D|--------------------------------|--------------------------------|
A|--------------------------------|--------------------------------|
E| 0------------------------------|---------------- 3------ 2------|
http://classicalguitartablature.blogspot.com/
http://classicalguitartablature.blogspot.com/
E| 0------------12--------------10|---------------- 8---- 7--------|
B|---- 0---- 0------ 0------ 0----|-- 0------ 0-------- 0---- 0----|
G|------ 0-------------- 0--------|------ 0------------------------|
D|--------------------------------|--------------------------------|
A|--------------------------------|--------------------------------|
E| 0------------------------------|--------------------------------|
http://classicalguitartablature.blogspot.com/
E|10-------------- 8--------------| 7------------------------------|
B|---- 0------ 0------ 0------ 0--|---- 0---- 0---- 0---- 3--------|
G|------ 0---------------- 0------|-------- 0------ 0------ 2------|
D|--------------------------------|-------------------- 0------ 0--|
A|--------------------------------|--------------------------------|
E| 0------------------------------|---------------- 3------ 2------|
http://classicalguitartablature.blogspot.com/
E| 0------------------------------|---------------- 2--------------|
B| 0-------------------- 0--------|---- 3------------ 3------------|
G| 0-------------- 0---------- 0--|-------- 4-------------- 4------|
D|------------ 4---- 4------------|------------ 4------------------|
A|-------- 2-------------------- 2|--------------------------------|
E| 0------------------------------|--------------------------------|
http://classicalguitartablature.blogspot.com/
E|---------------------- 0--------|--------------------------------|
B| 1------------ 1 3-------- 3----|---- 3--------------------------|
G|---- 0---- 0------ 0------------|-------- 0----------------------|
D|-------- 2----------------------|---------- 0-------- 0------ 0--|
A| 3------------------------------|--------------------------------|
E|--------------------------------| 3-------------- 3------ 2------|
http://classicalguitartablature.blogspot.com/
E|--------------------------------|---------------- 2--------------|
B|---------------------- 0--------|---- 3------------ 3------------|
G|---------------- 0---------- 0--|-------- 4-------------- 4------|
D|------------ 4------ 4----------|------------ 4------------------|
A|-------- 2-------------------- 2|--------------------------------|
E| 0------------------------------|--------------------------------|
http://classicalguitartablature.blogspot.com/
E|---------------------- 0--------| 2-------------- 2 3 2 0--------|
B| 1------------ 1 3-------- 3----|---- 3------ 3---------- 3------|
G|---- 0---- 0------ 0------------|-------- 2------------------ 2--|
D|-------- 2-------------------- 0|--------------------------------|
A| 3------------------------------|--------------------------------|
E|--------------------------------|--------------------------------|
http://classicalguitartablature.blogspot.com/
E|-- 5----------------10----------|--------------------------------|
B| 7---- 7------------10----------| 7------------------------------|
G|-- 7-------- 7------11----------| 7------------------------------|
D|--------------------------------|---- 7--------------------------|
A|--------------------------------|--------------------------------|
E|--------------------------------|--------------------------------|
http://classicalguitartablature.blogspot.com/
E|--------------------------------|--------------------------------|
B|--------------------------------| 0-------------- 0-- 1------ 3--|
G|--------------------------------| 0------ 0------ 0-- 0------ 2--|
D|--------------------------------|---- 0------ 0------------------|
A|--------------------------------|--------------------------------|
E|--------------------------------| 3------------------------------|
http://classicalguitartablature.blogspot.com/
E|--------------------------------|---------------- 2-- 3------ 2--|
B|---------------------- 3--------|------------ 0-------------- 3--|
G|-- 2------ 2------ 2------ 2----|-------- 0------------------ 4--|
D|------ 0-------- 0--------------|---- 4--------------------------|
A|--------------------------------|--------------------------------|
E| 2------------------------------| 0------------------------------|
http://classicalguitartablature.blogspot.com/
E|--------------------------------|---------------- 0------ 0------|
B|---- 3------ 3------------------|---------------- 1---- 1---- 3--|
G|---- 4------ 4---------- 4------|------ 0------------ 0------ 0--|
D|---- 4------ 4------ 4------ 4--|---- 2---- 2-------------- 0----|
A| 2------------------------------| 3------------------------------|
E|--------------------------------|--------------------------------|
http://classicalguitartablature.blogspot.com/
E|--------------------------------|--------------------------------|
B|---- 0------ 0------------------| 0------ 0------ 0-- 1------ 0--|
G|---- 0------ 0------ 0---- 2----| 0------ 0------ 0-- 0----------|
D|---- 0--------------------------|---- 2------ 2------------------|
A|--------------------------------|--------------------------------|
E| 3-------------- 3------ 2------| 0------------------------------|
http://classicalguitartablature.blogspot.com/
E|---------------- 2 3 2 0--------|--------------------------------|
B|-------- 3-------------- 3------| 0-------------- 0-- 1------ 3--|
G|---- 2------ 2-------------- 2--| 0------ 0------ 0-- 0------ 2--|
D| 0------------------------------|---- 0------ 0------------------|
A|--------------------------------|--------------------------------|
E|--------------------------------| 3------------------------------|
http://classicalguitartablature.blogspot.com/
E|--------------------------------|---------------- 2-- 3------ 2--|
B|---------------------- 3--------|------------ 0-------------- 3--|
G|-- 2------ 2------ 2------ 2----|-------- 0------------------ 4--|
D|------ 0-------- 0--------------|---- 4--------------------------|
A|--------------------------------|--------------------------------|
E| 2------------------------------| 0------------------------------|
http://classicalguitartablature.blogspot.com/
E|--------------------------------|---------------- 0------ 0------|
B|---- 3------ 3------------------|---------------- 1---- 1---- 3--|
G|---- 4------ 4---------- 4------|------ 0------------ 0------ 0--|
D|---- 4------ 4------ 4------ 4--|---- 2---- 2-------------- 0----|
A| 2------------------------------| 3------------------------------|
E|--------------------------------|--------------------------------|
http://classicalguitartablature.blogspot.com/
E|--------------------------------|--------------------------------|
B|---- 0------ 0------------------| 0------ 0------ 0-- 1------ 0--|
G|---- 0------ 0------ 0---- 2----| 0------ 0------ 0-- 0----------|
D|---- 0--------------------------|---- 2------ 2------------------|
A|--------------------------------|--------------------------------|
E| 3-------------- 3------ 2------| 0------------------------------|
http://classicalguitartablature.blogspot.com/
E|---------------- 2 3 2 0--------|-------------- 0------ 0------ 2|
B|-------- 3-------------- 3------| 1---------------------------- 3|
G|---- 2------ 2-------------- 2--|---- 0------ 0------------ 0----|
D| 0------------------------------|-------- 2-------- 2------------|
A|--------------------------------| 3------------------------------|
E|--------------------------------|--------------------------------|
http://classicalguitartablature.blogspot.com/
E|-------- 3-- 2------------------|------------ 3-- 2-- 0----------|
B|-------- 3-- 3---------- 3------|------------ 0-- 0-- 0------ 3--|
G| 4------------------ 4---- 4----|-------- 0------------------ 4--|
D|---- 4-------- 4----------------|---- 4---------------------- 4--|
A| 2------------------------------|--------------------------------|
E|--------------------------------| 0------------------------------|
http://classicalguitartablature.blogspot.com/
E|--------------------------------|---------------- 0------ 0------|
B|--------------------------------| 1------------------------------|
G|------ 4---- 4---------- 4------|---- 0------ 0------ 0------ 0--|
D|---- 4-------------- 4------ 4--|-------- 2----------------------|
A| 2------------------------------| 3------------------------------|
E|--------------------------------|--------------------------------|
http://classicalguitartablature.blogspot.com/
E|--------------------------------|--------------------------------|
B| 3------ 0-- 0------------------| 0------ 0---------- 0-- 1------|
G| 0------ 0-- 0------ 0------ 2--| 0------ 0------ 0--------------|
D|---- 0--------------------------| 2-- 2------ 2------------------|
A|--------------------------------|--------------------------------|
E| 3-------------- 3------ 2------| 0------------------------------|
http://classicalguitartablature.blogspot.com/
E|---------------- 3--------------| 2------------------------------|
B| 0------ 3---------- 3------ 3--| 3------------------------------|
G|---- 2------ 2---------- 2------| 2-------------- 0------ 2------|
D| 0------------------------------|--------------------------------|
A|--------------------------------|--------------------------------|
E|--------------------------------|--------------------------------|
http://classicalguitartablature.blogspot.com/
E|---------------- 0--------------|---------------- 2--------------|
B| 0------------------------------| 3-- 3-------------- 3----------|
G|-------------------- 0------ 0--| 4------ 4-------------- 4-- 4--|
D|------------ 4---------- 4------|------------ 4------------------|
A|-------- 2----------------------| 2------------------------------|
E| 0------------------------------|--------------------------------|
http://classicalguitartablature.blogspot.com/
E|--------------------------------|--------------------------------|
B| 3---------- 3 1------ 0-- 0----|---------------------- 0-- 0----|
G|-------- 0------ 0---- 0--------|-------- 0------------ 2-- 2----|
D|---- 2--------------------------|-- 0------ 0------ 0-- 0-- 0----|
A| 3------------------------------|--------------------------------|
E|--------------------------------| 3------------ 3------ 2--------|
http://classicalguitartablature.blogspot.com/
E|---------------- 0--------------|---------------- 2--------------|
B| 0------------------------------| 3-- 3-------------- 3----------|
G|-------------------- 0------ 0--| 4------ 4-------------- 4-- 4--|
D|------------ 4---------- 4------|------------ 4------------------|
A|-------- 2----------------------| 2------------------------------|
E| 0------------------------------|--------------------------------|
http://classicalguitartablature.blogspot.com/
E|--------------------------------|---------------- 3--------------|
B| 3-------------- 1------ 0-- 0--|------------ 3------ 3------ 3--|
G| 0------ 0------ 0--------------|---- 2-- 2-------------- 2------|
D|---- 2------ 2------ 2----------| 0------------------------------|
A| 3------------------------------|--------------------------------|
E|--------------------------------|--------------------------------|
http://classicalguitartablature.blogspot.com/
E| 2---------------------- 0------|---------------------- 0--------|
B|------------------------------ 3|---------- 3------------------ 1|
G|-------------------- 0----------|------ 0-------- 0--------------|
D|--------------------------------|---- 0-------------- 0------ 0--|
A|--------------------------------|--------------------------------|
E|--------------------------------| 3---------------------------- 2|
http://classicalguitartablature.blogspot.com/
E|--------------------------------|--------------------------------|
B|---------------- 1---- 3--------| 0------------------------------|
G|------ 2---------- 2-------- 2--| 0------ 0-------------- 2-- 0--|
D|-- 0-------- 0------------------|---- 4------ 4------ 4----------|
A|--------------------------------|--------------------------------|
E|--------------------------------| 0------------------------------|
http://classicalguitartablature.blogspot.com/
E|--------------------------------| 0-------------------- 2--------|
B|-------- 3-------------- 3------| 1------------ 1----------------|
G|---- 4------ 4------ 4------ 4--|------ 0-------------------- 0--|
D| 4-------------- 0--------------|---- 2---- 2------ 2------------|
A| 2------------------------------| 3------------------------------|
E|--------------------------------|--------------------------------|
http://classicalguitartablature.blogspot.com/
E|------------------------ 0------|---------------- 7--------------|
B| 3---------------------- 1 1----| 0---------------------- 0------|
G|-------- 0-------------- 2-- 2--|-------- 0---------- 0------ 0--|
D|---- 0------ 0------ 0----------|---- 2------ 2------------------|
A|--------------------------------|--------------------------------|
E| 3-------------- 3------ 2------| 0------------------------------|
http://classicalguitartablature.blogspot.com/
E| 5------------------------------| 8------ 7----------------------|
B|-------- 7-------------- 7------| 0---------------------- 0------|
G|---- 7------ 7------ 7------ 7--| 0------------------ 0------ 0--|
D| 0------------------------------|---- 0------ 0------------------|
A|--------------------------------|10------------------------------|
E|--------------------------------|--------------------------------|
http://classicalguitartablature.blogspot.com/
E|10------ 8-------------- 7-- 8--| 7------------------------------|
B| 7------------------------------| 8------ 8------10------ 8------|
G| 7------------------ 7----------|---- 9------ 9------ 9---- 9----|
D|---- 7------ 7------------------|--------------------------------|
A| 9------------------------------|--------------------------------|
E|--------------------------------| 0------------------------------|
http://classicalguitartablature.blogspot.com/
E| 2---------- 0------------------| 0------------------------------|
B| 3------------ 3----------------|------------ 1-------- 3-- 1 0--|
G|-------- 4---------- 4------ 4--|-------- 0---- 0----------------|
D|---- 4------------------ 4------|---- 2-------------- 2----------|
A| 2------------------------------| 3------------------------------|
E|--------------------------------|--------------------------------|
http://classicalguitartablature.blogspot.com/
E|--------------------------------|---------------- 0--------------|
B| 1 0----------------------------| 0---------- 0------ 0----------|
G| 0---------- 0------ 0-- 2------|-------- 0-------------- 0------|
D|-------- 0------------------ 0--|---- 4---------------------- 4--|
A|--------------------------------|--------------------------------|
E| 3-------------- 3------ 2------| 0------------------------------|
http://classicalguitartablature.blogspot.com/
E|---------------- 3--------------|-------------- 0------ 0------ 2|
B| 3---------- 3------ 3------ 3--| 1---------------------------- 3|
G|-------- 2-------------- 2------|---- 0------ 0------------ 0----|
D| 0------------------------------|-------- 2-------- 2------------|
A|--------------------------------| 3------------------------------|
E|--------------------------------|--------------------------------|
http://classicalguitartablature.blogspot.com/
E|-------- 3-- 2------------------|------------ 3-- 2-- 0----------|
B|-------- 3-- 3---------- 3------|------------ 0-- 0-- 0------ 3--|
G| 4------------------ 4---- 4----|-------- 0------------------ 4--|
D|---- 4-------- 4----------------|---- 4---------------------- 4--|
A| 2------------------------------|--------------------------------|
E|--------------------------------| 0------------------------------|
http://classicalguitartablature.blogspot.com/
E|--------------------------------|---------------- 0------ 0------|
B|--------------------------------| 1------------------------------|
G|------ 4---- 4---------- 4------|---- 0------ 0------ 0------ 0--|
D|---- 4-------------- 4------ 4--|-------- 2----------------------|
A| 2------------------------------| 3------------------------------|
E|--------------------------------|--------------------------------|
http://classicalguitartablature.blogspot.com/
E|--------------------------------|--------------------------------|
B| 3------ 0-- 0------------------| 0------ 0---------- 0-- 1------|
G| 0------ 0-- 0------ 0------ 2--| 0------ 0------ 0--------------|
D|---- 0--------------------------| 2-- 2------ 2------------------|
A|--------------------------------|--------------------------------|
E| 3-------------- 3------ 2------| 0------------------------------|
http://classicalguitartablature.blogspot.com/
E|---------------- 3--------------| 2------------------------------|
B| 0------ 3---------- 3------ 3--| 3------------------------------|
G|---- 2------ 2---------- 2------| 2-------------- 0------ 2------|
D| 0------------------------------|--------------------------------|
A|--------------------------------|--------------------------------|
E|--------------------------------|--------------------------------|
http://classicalguitartablature.blogspot.com/
E|---------------- 0--------------|---------------- 2--------------|
B| 0------------------------------| 3-- 3-------------- 3----------|
G|-------------------- 0------ 0--| 4------ 4-------------- 4-- 4--|
D|------------ 4---------- 4------|------------ 4------------------|
A|-------- 2----------------------| 2------------------------------|
E| 0------------------------------|--------------------------------|
http://classicalguitartablature.blogspot.com/
E|--------------------------------|--------------------------------|
B| 3---------- 3 1------ 0-- 0----|---------------------- 0-- 0----|
G|-------- 0------ 0---- 0--------|-------- 0------------ 2-- 2----|
D|---- 2--------------------------|-- 0------ 0------ 0-- 0-- 0----|
A| 3------------------------------|--------------------------------|
E|--------------------------------| 3------------ 3------ 2--------|
http://classicalguitartablature.blogspot.com/
E|---------------- 0--------------|---------------- 2--------------|
B| 0------------------------------| 3-- 3-------------- 3----------|
G|-------------------- 0------ 0--| 4------ 4-------------- 4-- 4--|
D|------------ 4---------- 4------|------------ 4------------------|
A|-------- 2----------------------| 2------------------------------|
E| 0------------------------------|--------------------------------|
http://classicalguitartablature.blogspot.com/
E|--------------------------------|--------------------------------|
B| 3-------------- 1------ 0-- 0--|------------------------ 0-- 0--|
G| 0------ 0------ 0--------------|---- 2------------------ 2-- 2--|
D|---- 2------ 2------ 2----------| 0---------- 0------ 0-- 0-- 0--|
A| 3------------------------------|--------------------------------|
E|--------------------------------|---------------- 3------ 2------|
http://classicalguitartablature.blogspot.com/
E|---------------- 0--------------|---------------- 2--------------|
B| 0------------------------------| 3-- 3-------------- 3----------|
G|-------------------- 0------ 0--| 4------ 4-------------- 4-- 4--|
D|------------ 4---------- 4------|------------ 4------------------|
A|-------- 2----------------------| 2------------------------------|
E| 0------------------------------|--------------------------------|
http://classicalguitartablature.blogspot.com/
E|--------------------------------|------------ 3-- 3---- 3------ 3|
B| 3-------------- 1---- 0--------| 0-------------- 0-------- 3----|
G| 0------ 0---------------- 0----| 0------ 0-------------- 2------|
D|---- 2------ 2---- 2------------|-- 0---------------- 0------ 0--|
A| 3------------------------------|--------------------------------|
E|--------------------------------| 3-------------- 3------ 2------|
http://classicalguitartablature.blogspot.com/
E|-------------- 2-- 0------------|-------------- 2-------------- 0|
B|------------ 0---------- 3 3----|------------------ 3---- 3-- 3--|
G|------ 0------------------------|-------- 4----------------------|
D|---- 4--------------------------|---------- 4--------------------|
A|------------------------------ 2|--------------------------------|
E| 0------------------------------|--------------------------------|
http://classicalguitartablature.blogspot.com/
E|---------------- 2---- 3---- 3--|---- 2---------- 2 3 2 0--------|
B|-------- 1----------------------|-------- 3-------------- 3------|
G|---- 0------ 0------------------|------------ 2---------------- 2|
D|--------------------------------| 0------------------------------|
A| 3------------------------------|--------------------------------|
E|--------------------------------|--------------------------------|
http://classicalguitartablature.blogspot.com/
E|---- 5--------------10----------|--------------------------------|
B|-- 7---- 7----------10----------| 7------------------------------|
G|-------------- 7----11----------| 7------------------------------|
D|--------------------------------| 7------------------------------|
A|--------------------------------|--------------------------------|
E|--------------------------------|--------------------------------|
http://classicalguitartablature.blogspot.com/

0 ความคิดเห็น:

แสดงความคิดเห็น