To celebrate the anniversary, I am giving you (finally...) : iPhone LickByNeck !!!!!!

Wind Of Change (BASIC)

Scorpions' tune fingerstyle chord melody guitar BASIC arrangement played in the key of C.

Wind Of Change-Scorpions-BASIC ARRANGEMENT played in the key of C.
http://classicalguitartablature.blogspot.com/
E|------ 5-- 7 8------------------|------------------10------------|
B|-------- 6 6 6-------- 6 8------|--------10--1213------13--------|
G|------ 5---- 5---------- 5-- 7--|------10------10----------10----|
D|-------------------- 5----------|----12----------------------12--|
A| 8---------------- 8------------|--------------------------------|
E|--------------------------------|10------------------------------|
http://classicalguitartablature.blogspot.com/
E|------ 5-- 7 8------------------|------------------10------------|
B|-------- 6 6 6-------- 6 8------|--------10--1213------13--------|
G|------ 5---- 5---------- 5-- 7--|------10------10----------10----|
D|-------------------- 5----------|----12----------------------12--|
A| 8---------------- 8------------|--------------------------------|
E|--------------------------------|10------------------------------|
http://classicalguitartablature.blogspot.com/
http://classicalguitartablature.blogspot.com/
E|----------------12--13--12------|10------------ 8-------------- 7|
B|--------13--15--13--13--13--13--|----------10-- 5-- 5------------|
G|----14--14--14--14--14----------|----10---------------- 5--------|
D|--------------------------------|--------12---------------- 7----|
A| 0------------------------------|------------12-- 0--------------|
E|--------------------------------|10---------------------------- 3|
http://classicalguitartablature.blogspot.com/
E|--------------------------------|------------------------ 0------|
B|-- 3----------------------------| 1-------------- 1 3------ 1-- 3|
G|------ 4------------------------| 0-------------- 0 0------------|
D|---------- 5------------------ 2|---------------- 2 2------------|
A|------------------------------ 3|--------------------------------|
E|--------------------------------|--------------------------------|
http://classicalguitartablature.blogspot.com/
E|-------------------------- 3-- 0|-------------- 1-- 0------ 0----|
B|------ 3------ 3-- 5---- 6---- 1|---------- 1-- 1-- 1---- 3------|
G|------ 5---- 5 5-- 5------------|------ 0------ 0-- 0---- 0---- 7|
D|-- 3-------- 3 3----------------|---- 2------ 2------------------|
A| 5------------ 5----------------| 3-------------- 3--------------|
E|--------------------------------|--------------------------------|
http://classicalguitartablature.blogspot.com/
E|--------------------------------|--------------------------------|
B|---------------- 1-------- 0 0--|------------ 0------------------|
G|-------- 7---- 2-------- 2------|-------- 0---------- 0----------|
D|---- 7---- 7-------- 2----------|---- 0------------------ 0---- 2|
A| 5------------ 0----------------|------------------------------ 3|
E|------------------------------ 3|--------------------------------|
http://classicalguitartablature.blogspot.com/
E|------------------------ 0------|-------------------------- 3-- 0|
B| 1-------------- 1 3------ 1-- 3|------ 3------ 3-- 5---- 6---- 1|
G| 0-------------- 0 0------------|------ 5---- 5 5-- 5------------|
D|---------------- 2 2------------|-- 3-------- 3 3----------------|
A|--------------------------------| 5------------ 5----------------|
E|--------------------------------|--------------------------------|
http://classicalguitartablature.blogspot.com/
E|-------------- 1-- 0------ 0----|--------------------------------|
B|---------- 1-- 1-- 1---- 3------|---------------- 1-------- 0 0--|
G|------ 0------ 0-- 0---- 0---- 7|-------- 7---- 2-------- 2------|
D|---- 2------ 2------------------|---- 7---- 7-------- 2----------|
A| 3-------------- 3--------------| 5------------ 0----------------|
E|--------------------------------|------------------------------ 3|
http://classicalguitartablature.blogspot.com/
E|--------------------------------| 0-------------------------- 0--|
B|------------ 0------------------| 1---------- 3 3---------- 3----|
G|-------- 0---------- 0----------| 0------ 0-------------- 0------|
D|---- 0------------------ 0------|---- 2-------------- 0----------|
A|--------------------------------| 3------------------------------|
E|--------------------------------|---------------- 3--------------|
http://classicalguitartablature.blogspot.com/
E|-------------- 3---- 1 0------ 0|---------------------------- 0--|
B| 6-- 6-- 6 6-- 0---- 0 0-- 3----|---------- 3 3------------ 3----|
G| 5-- 5-- 5 5-- 0---- 0----------|-------- 0-------------- 0------|
D| 3-- 3-- 3 3--------------------|---- 2------ 0---- 0------------|
A| 5------------------------------| 3------------------------------|
E|---------------- 3--------------|---------------- 3--------------|
http://classicalguitartablature.blogspot.com/
E|-------------- 3---- 1 0------ 0|---------------------- 1-- 0----|
B| 6-- 6-- 6 6-- 0---- 0 0-- 3-- 1|-------------------- 1 1-- 1-- 3|
G| 5-- 5-- 5 5-- 0---- 0-------- 2|-------- 2---------- 2 2-- 2----|
D| 3-- 3-- 3 3--------------------|-------- 2------------ 3--------|
A| 5------------------------------| 0-- 0-- 0-- 0------------------|
E|---------------- 3--------------|---------------- 1-- 1-- 1-- 1--|
http://classicalguitartablature.blogspot.com/
E|--------------------------------|-------------------------- 0----|
B|--------------------------------|---------------------- 1------ 3|
G|-------- 0------------ 0--------|---------- 2-- 2 2 2------------|
D|-------- 0-------------- 0---- 2|--------------------------------|
A|--------------------------------| 0-- 0-- 0 0---- 0-- 0-- 0-- 0--|
E| 3-- 3-- 3-- 3-- 3-- 3-- 3 3----|--------------------------------|
http://classicalguitartablature.blogspot.com/
E|--------------------------------|-------------------------- 0----|
B|---------- 0 0-- 0---- 1-- 0----|---------------------- 1------ 3|
G|------------ 0-- 0---- 0-- 0-- 2|-------- 2 2-- 2-- 2------------|
D|------------ 0-- 0---- 0-- 0----|---------- 2-- 2-- 2------------|
A|--------------------------------| 0-- 0-- 0 0---- 0-- 0-- 0-- 0--|
E| 3-- 3 3-- 3-- 3---- 3-- 3-- 3--|--------------------------------|
http://classicalguitartablature.blogspot.com/
E|------------------------------ 0|-------- 0-- 0 0-- 0-- 1 0------|
B|-------- 0 0-- 0-- 0-- 1-- 3----|-------- 1 1-- 1-- 1-- 0 1-- 3--|
G|-------- 0 0-- 0-- 0-- 0-- 0----|-------- 0-- 0 0-- 0 0-- 0------|
D|------------ 0 0-- 0-- 0-- 0----|--------------------------------|
A|--------------------------------| 3-- 3-- 3-- 3-- 3-- 3-- 3 3----|
E| 3-- 3-- 3-- 3-- 3-- 3-- 3-- 3--|--------------------------------|
http://classicalguitartablature.blogspot.com/
E|---------------------------- 0--|------------------------------ 0|
B|-------- 3 5-- 6-- 6-- 5-- 3----|------ 0 1 0---------- 0 1 0----|
G|-------- 5 5-- 5-- 5-- 5-- 5----|-- 1 2 1 1 1------ 1 2---- 2----|
D|-------------- 3-- 3-- 3-- 3----|--------------------------------|
A| 5-- 5-- 5 5---- 5-- 5-- 5-- 5--|--------------------------------|
E|--------------------------------| 0-- 0-- 0-- 0-- 0-- 0-- 0-- 0--|
http://classicalguitartablature.blogspot.com/
E|---------------- 5 7-- 8 7 5 5--|---------------- 5 3-- 3--------|
B|-------- 0------ 0-- 0---- 8--10|---------- 8-- 8 3 3-- 3---- 5 6|
G|-------- 7---------- 7-------- 9|------------ 9-- 4---- 4---- 4--|
D|--------------------------------|10------------------------------|
A|--------------------------------| 8-- 8 8---- 8------------------|
E| 0-- 0-- 0-- 0-- 0-- 0-- 0-- 0--|---------------- 3-- 3-- 3-- 3--|
http://classicalguitartablature.blogspot.com/
E|------------------------------ 5|-------------- 0----------------|
B| 8-- 6-- 5 5---- 3 3-------- 5--| 1 0 1 0 1------ 1------ 0------|
G| 0---- 7---- 7 5 5 5-------- 5--| 2 2 2 2 2------ 0------ 0------|
D|---------------- 5--------------|------ 3-------- 0------ 0------|
A|---------------- 0-- 0-- 0-- 0--|--------------------------------|
E| 0-- 0-- 0-- 0------------------| 1-- 1-- 1-- 1-- 3-- 3-- 3-- 3--|
http://classicalguitartablature.blogspot.com/
E| 5------------------------------|--------------------------------|
B| 5-------------- 8 6-- 5 6 5----|-------------- 1 0--------------|
G| 5-------------- 5 5-- 5 5 5----| 2---------- 2 0----------------|
D|---------------- 5 5---- 5 5----| 3------------------------------|
A| 0-- 0-- 0-- 0-- 0-- 0-- 0-- 0--|--------------------------------|
E|--------------------------------| 1-- 1-- 1-- 1-- 3-- 3-- 3-- 3--|
http://classicalguitartablature.blogspot.com/
E|---------------- 0-------- 0----|--------------------------------|
B|-------- 3------ 1------ 3 1----| 3------ 6------ 5---- 3--------|
G| 4------ 4------ 2------ 2 2----| 5------ 5------ 5---- 5--------|
D| 2---------------------- 2 2----| 3------ 3------ 3---- 3--------|
A|---------------- 0-- 0-- 0-- 0--| 5-- 5-- 5-- 5-- 5-- 5-- 5-- 5--|
E| 4-- 4-- 4-- 4------------------|--------------------------------|
http://classicalguitartablature.blogspot.com/
E| 4-------------- 4--------------| 0-------------------------- 0--|
B| 5-------- 7 5 7----------------| 1---------- 3 3---------- 3----|
G| 4-------- 4 4 4----------------| 0------ 0-------------- 0------|
D|---------- 6-- 6----------------|---- 2-------------- 0----------|
A|--------------------------------| 3------------------------------|
E| 0-- 0-- 0-- 0-- 0-- 0-- 0-- 0--|---------------- 3--------------|
http://classicalguitartablature.blogspot.com/
E|-------------- 3---- 1 0------ 0|---------------------------- 0--|
B| 6-- 6-- 6 6-- 0---- 0 0-- 3----|---------- 3 3------------ 3----|
G| 5-- 5-- 5 5-- 0---- 0----------|-------- 0-------------- 0------|
D| 3-- 3-- 3 3--------------------|---- 2------ 0---- 0------------|
A| 5------------------------------| 3------------------------------|
E|---------------- 3--------------|---------------- 3--------------|
http://classicalguitartablature.blogspot.com/
E|-------------- 3---- 1 0------ 0|---------------------- 1-- 0----|
B| 6-- 6-- 6 6-- 0---- 0 0-- 3-- 1|-------------------- 1 1-- 1-- 3|
G| 5-- 5-- 5 5-- 0---- 0-------- 2|-------- 2---------- 2 2-- 2----|
D| 3-- 3-- 3 3--------------------|-------- 2------------ 3--------|
A| 5------------------------------| 0-- 0-- 0-- 0------------------|
E|---------------- 3--------------|---------------- 1-- 1-- 1-- 1--|
http://classicalguitartablature.blogspot.com/
E|--------------------------------|------ 5-- 7 8------------------|
B|--------------------------------|-------- 6 6 6-------- 6 8------|
G|-------- 0------------ 0--------|------ 5---- 5---------- 5-- 7--|
D|-------- 0-------------- 0------|-------------------- 5----------|
A|--------------------------------| 8---------------- 8------------|
E| 3-- 3-- 3-- 3-- 3-- 3-- 3 3----|--------------------------------|
http://classicalguitartablature.blogspot.com/
E|------------------10------------|------ 5-- 7 8------------------|
B|--------10--1213------13--------|-------- 6 6 6-------- 6 8------|
G|------10------10----------10----|------ 5---- 5---------- 5-- 7--|
D|----12----------------------12--|-------------------- 5----------|
A|--------------------------------| 8---------------- 8------------|
E|10------------------------------|--------------------------------|
http://classicalguitartablature.blogspot.com/
E|------------------10------------|----------------12--13--12------|
B|--------10--1213------13--------|--------13--15--13--13--13--13--|
G|------10------10----------10----|----14--14--14--14--14----------|
D|----12----------------------12--|--------------------------------|
A|--------------------------------| 0------------------------------|
E|10------------------------------|--------------------------------|
http://classicalguitartablature.blogspot.com/
E|10------------ 8-------------- 7|--------------------------------|
B|----------10-- 5-- 5------------|-- 3----------------------------|
G|----10---------------- 5--------|------ 4------------------------|
D|--------12---------------- 7----|---------- 5--------------------|
A|------------12-- 0--------------|--------------------------------|
E|10---------------------------- 3|--------------------------------|
http://classicalguitartablature.blogspot.com/

0 ความคิดเห็น:

แสดงความคิดเห็น