To celebrate the anniversary, I am giving you (finally...) : iPhone LickByNeck !!!!!!

You're The Inspiration (BASIC)

Chicago's tune fingerstyle chord melody guitar BASIC arrangement played in the key of Ab.

You're The Inspiration-Chicago-BASIC ARRANGEMENT played in the key of Ab.
http://classicalguitartablature.blogspot.com/
E|--------------------------------|--------------------------------|
B|--------------------------------| 4------ 4------ 4------ 4------|
G|-------------- 5 6 8------ 6 5--| 1------ 1------ 6------ 6------|
D|--------------------------------|---- 3------ 3-- 6-- 6------ 6--|
A|--------------------------------| 4-------------- 6--------------|
E|-------------- 4 6 8------ 6 4--|--------------------------------|
http://classicalguitartablature.blogspot.com/
E|--------------------------------|--------------------------------|
B| 1------ 1------ 1 2 4---- 2----| 4------ 4------ 4------ 4------|
G| 1------ 1------ 1--------------| 1------ 1------ 6------ 6------|
D|---- 1------ 1-- 1---------- 1--|---- 3------ 3-- 6-- 6------ 6--|
A|------------------ 1 3-- 1------| 4-------------- 6--------------|
E| 4-------------- 3---------- 4--|--------------------------------|
http://classicalguitartablature.blogspot.com/
http://classicalguitartablature.blogspot.com/
E|--------------------------------|--------------------------------|
B|---------------- 4---- 4---- 7 7|--------------------------------|
G|-------- 4 4 4 6 4 4---------- 6|------ 6------------ 6------ 6--|
D|---- 4---------- 4------------ 9|---- 9------ 9-- 8------ 8------|
A|--------------------------------| 6-------------- 6--------------|
E| 7-------------- 7--------------|--------------------------------|
http://classicalguitartablature.blogspot.com/
E|-------- 4 4-- 4---- 4 4 2---- 2|-- 0-------------------- 2------|
B|-------- 4---- 4----------------|---- 2 0------------------ 2----|
G|---- 4-- 4---- 4-- 4---------- 1|---------- 1---------- 1---- 3--|
D|------ 6------------------------|------------ 2------ 2-------- 4|
A|--------------------------------|--------------------------------|
E| 4-------------- 2------------ 0|---------------- 0------ 2------|
http://classicalguitartablature.blogspot.com/
E|---------------------- 4---- 6--|--------------------------------|
B|---------------- 4------ 4-- 5--| 7------ 7----------------------|
G|-------- 4-- 4 6---- 4-- 4-- 4--| 6------ 6------ 6--------------|
D|---- 4--------------------------| 9-- 9------ 9-- 8-- 8------ 8--|
A|---------------------------- 4--| 6-------------- 6------ 6 9-- 9|
E| 7-------------- 7------ 7------|--------------------------------|
http://classicalguitartablature.blogspot.com/
E|------ 4-- 4 4---- 4-- 4-- 2 2--|-- 4-- 0------------------------|
B|-------- 4-------- 4-- 4---- 0--|------------ 0---------- 0------|
G|-------- 4---- 4-- 4-- 4---- 1--|-- 1---------- 1-- 1-------- 1--|
D|---- 4--------------------------|--------------------------------|
A|--------------------------------|--------------------------------|
E| 4-------------- 2--------------| 0-------------- 0--------------|
http://classicalguitartablature.blogspot.com/
E|--------------------------------|--------------------------------|
B| 7---------- 7 7---- 4----------| 5-- 4-- 2---- 2------ 5--------|
G| 6------ 6-------- 6-------- 4--| 4-- 4---- 4-------- 2-------- 3|
D|---- 4------------------ 4------| 2-- 2------------ 2------ 2-- 5|
A|--------------------------------|--------------------------------|
E| 6-------------- 7--------------| 4-------------- 5------------ 3|
http://classicalguitartablature.blogspot.com/
E|--------------------------------|--------------------------------|
B| 4-- 5 4---------------- 2-- 2 2|-------- 4-- 4-- 4---- 6---- 8--|
G|------------ 6 4------ 4 1-- 1--|------ 3---- 3------ 5 7--------|
D|-------------------- 6-- 3-- 3--|---- 4-- 5-- 5-- 6-- 6-- 8------|
A|--------------------------------|--------------------------------|
E|---------------- 4------ 1------| 2------ 3------ 4------ 6------|
http://classicalguitartablature.blogspot.com/
E|--------------------------------|------------ 4------------------|
B| 4-- 4 4-- 4---- 4-- 6 4--------|---- 4-- 4------ 8---- 6--------|
G| 3-- 3 3-- 3-- 3-- 3-- 3---- 3--| 5-- 5-- 5-- 5-- 8-- 8------ 8--|
D| 5-- 5 5---- 5-- 5-- 5 5-- 5----| 6------ 6---- 6---- 6----------|
A| 6------------------------------|--------------------------------|
E|---------------- 3--------------| 4------------ 6----------------|
http://classicalguitartablature.blogspot.com/
E|-------------------- 3----------|------------ 4------------------|
B|-- 4 4 4-- 4 4-- 4-- 6 4--------|---- 4-- 4------ 8---- 6--------|
G|---- 3-- 3 3---- 3-- 3------ 3--| 5-- 5-- 5-- 5-- 8-- 8------ 8--|
D|---- 5-- 5 5 5-- 5 5------ 5----| 6------ 6---- 6---- 6----------|
A| 6------------------------------|------------------------------ 9|
E|---------------- 3--------------| 4------------ 6----------------|
http://classicalguitartablature.blogspot.com/
E|------------------ 6------------|--------------------------------|
B|------ 7 7 7 7 9------------ 7--| 7 7 7 7-- 9----11------ 9------|
G|------ 6 6 6 6 6----------------|-- 8 8-- 8------11----11----11--|
D|---- 8 8 8 8 8---------- 6------| 9 9-- 9------12----12----------|
A|---------------- 9--------------| 9------------ 9----------------|
E|--------------------------------|--------------------------------|
http://classicalguitartablature.blogspot.com/
E|---------- 2-- 7-------- 6 4----|---------------------------- 6--|
B|------ 2-------------- 4---- 7 7|---------- 7---------- 9--11----|
G|------ 3-------- 4 4------------|------ 6--------1011------------|
D|---- 4------------------------ 4|-- 4------------ 8--------------|
A| 4------------ 4----------------| 4------------------------------|
E|--------------------------------|----------------10--------------|
http://classicalguitartablature.blogspot.com/
E|---------------- 3--------------|--------------------------------|
B| 8-------------- 4-- 6-- 4-- 3--|-------- 6-- 3------------------|
G| 8------ 8------ 3------ 3---- 5|-------- 5---------- 3-- 5-- 3--|
D| 8-- 8------ 8------ 5-- 5------|---- 6-- 6----------------------|
A| 6------------------------------|--------------------------------|
E|---------------- 3--------------| 4-------------- 6--------------|
http://classicalguitartablature.blogspot.com/
E|--------------------------------|------------ 8 6----------------|
B|-------- 4----------------------|-------- 8---- 6----------------|
G|-------- 3---- 3-------- 3------|------ 5------ 7----------------|
D|---- 5------ 5------ 5------ 5--|---- 6-------------- 8-- 8-- 6--|
A| 6------------------------------|------------------------------ 9|
E|---------------- 3--------------| 4-------------- 6-------- 6-- 6|
http://classicalguitartablature.blogspot.com/
E|------------------ 6------------|--------------------------------|
B|------ 7 7 7 7 9------------ 7--| 7 7 7 7-- 9----11------ 9------|
G|------ 6 6 6 6 6----------------|-- 8 8-- 8------11----11----11--|
D|---- 8 8 8 8 8---------- 6------| 9 9-- 9------12----12----------|
A|---------------- 9--------------| 9------------ 9----------------|
E|--------------------------------|--------------------------------|
http://classicalguitartablature.blogspot.com/
E|---------- 2-------- 4 6-- 4----|-------------------- 4----------|
B|------ 2-------- 7---------- 7--| 7-------- 7-- 6-- 7------------|
G|------ 3-------- 4--------------| 4---- 6------ 4----------------|
D|---- 4---------- 6--------------| 4-- 4-------- 4-- 4------ 4----|
A| 4-------------- 4--------------| 4------------ 4----------------|
E|--------------------------------|--------------------------------|
http://classicalguitartablature.blogspot.com/
E|--------------------------------|------------ 6------------------|
B| 6-- 6 6-- 6---- 6-- 8 6--------|---- 6-- 6-- 6--10------ 8------|
G| 5-- 5 5-- 5---- 5---- 5---- 5--| 7-- 7-- 7-- 7--10--10------10--|
D| 7-- 7 7---- 7 7 7-- 7 7-- 7----| 8-- 8-- 8---- 8----------------|
A| 8------------------------------|--------------------------------|
E|---------------- 5--------------| 6------------ 8----------------|
http://classicalguitartablature.blogspot.com/
E|-------------------- 5----------|---------- 6---- 5-- 3-- 3---- 3|
B|-- 6 6 6-- 6 6 6---- 8----------|------ 6-------- 3-------- 6----|
G|-- 5 5-- 5 5 5 5-- 5-------- 5--| 7-- 7 5-------- 3-- 3-- 3------|
D|-- 7 7-- 7-- 7-- 7 7---- 7------| 8-- 8 5------------------------|
A| 8-------------- 5--------------|------------------------ 3------|
E|--------------------------------| 6---- 5-------- 3--------------|
http://classicalguitartablature.blogspot.com/
E| 5-- 5 5------------------------|--------------------------------|
B| 6-- 6-- 6-- 6------ 6 6-- 8-- 6|---------- 6-------------- 6 8--|
G| 5-- 5-- 5------ 5---- 5--------|------ 7-------------- 7--------|
D|-------------- 7 7---- 7-- 7----|-- 8---------- 8---- 8----------|
A| 8------------------------------|--------------------------------|
E|---------------- 5--------------| 6-------------- 8--------------|
http://classicalguitartablature.blogspot.com/
E| 5-- 5 5------ 5------ 6-- 8----|---- 6 5------------ 5-- 3---- 3|
B| 6-- 6-- 6-- 6-- 6---- 6--------|------ 6---- 6---------- 3-- 6--|
G| 5-- 5-- 5------ 5---- 5---- 5--| 7-------------- 5------ 3------|
D|------------ 7------------------| 8---- 7-------- 3--------------|
A| 8-------------- 5--------------|------------------------ 3------|
E|--------------------------------| 6------ 5------ 3--------------|
http://classicalguitartablature.blogspot.com/
E| 5-- 5 5------------------------|--------------------------------|
B| 6-- 6-- 6-- 6------ 6 6-- 8-- 6|---------- 6-------------- 6 8--|
G| 5-- 5-- 5------ 5---- 5--------|------ 7-------------- 7--------|
D|-------------- 7 7---- 7-- 7----|-- 8---------- 8---- 8----------|
A| 8------------------------------|--------------------------------|
E|---------------- 5--------------| 6-------------- 8--------------|
http://classicalguitartablature.blogspot.com/
E| 5-- 5 5------ 5------ 6-- 8----|---- 6 5------------ 5-- 3---- 3|
B| 6-- 6-- 6-- 6-- 6---- 6--------|------ 6---- 6---------- 3-- 6--|
G| 5-- 5-- 5------ 5---- 5---- 5--| 7-------------- 5------ 3------|
D|------------ 7------------------| 8---- 7-------- 3--------------|
A| 8-------------- 5--------------|------------------------ 3------|
E|--------------------------------| 6------ 5------ 3--------------|
http://classicalguitartablature.blogspot.com/
E| 5------------------------------|--------------------------------|
B| 6------------------------------| 1------------------------------|
G| 5------ 5------ 2 3 5---- 3 2--| 3------------------------------|
D|---- 7------ 7------------------| 3------------------------------|
A| 8---------------------------- 1|--------------------------------|
E|---------------- 1 3 5---- 3 1--|--------------------------------|
http://classicalguitartablature.blogspot.com/

0 ความคิดเห็น:

แสดงความคิดเห็น